Song name
# A B C D E F G H I J K L M N O P Q R S T U V W X Y Z

Yngwie Malmsteen - Triology Suite - Opus 5 tab

Help us improve GuitareTab! Take a short survey!
    triology suite opp: 5

    traduit en tablature par steve morin


|       |       |       |        |       |       |       |        
|--------------------------------|----------------0---------------|
|--------------------------------|------------1-------1---0-------|
|--------------------------------|--------2-----------------------|
|--------------------------------|----------------------------2---|
|--------------------------------|0-------------------------------|
|--------------------------------|--------------------------------|
 
 |       |       |       |        |       |       |       |        
|------------0-------------------|------------0-------1-----------|
|--------1-------0---1-----------|--------3---------------3-------|
|----2---------------------------|----2-----------2-----------2---|
|3-----------------------3---2---|0-------0-----------------------|
|--------------------------------|--------------------------------|
|--------------------------------|--------------------------------|
 
 |       |       |       |        |       |       |       |        
|------------5---------------4---|------------0-------------------|
|--------3---------------3-------|--------1-----------0---1-------|
|----4---------------4-----------|----2-----------2---------------|
|--------------------------------|----------------------------2---|
|--------------------------------|0-------------------------------|
|0---------------0---------------|--------------------------------|
 
 |       |       |       |        |       |       |       |        
|------------0-------------------|------------0-------1-----------|
|--------1-------0---1-----------|--------3---------------3-------|
|----2---------------------------|----2-----------2-----------2---|
|3-----------------------3---2---|0-------------------------------|
|--------------------------------|--------------------------------|
|--------------------------------|--------------------------------|
 
 |       |       |       |        |       |       |       |        
|------------5---------------4---|----------------5---3---1---0---|
|--------3---------------3-------|------------2-------------------|
|----4---------------4---4-------|--------2-----------------------|
|--------------------------------|----2---2-----------------------|
|--------------------------------|4-------------------------------|
|0---------------4---------------|--------------------------------|
 
 |       |       |       |        |       |       |       |        
|------------0---1---0-----------|----------------3---1h1h0-------|
|--------3---------------3-------|------------3---------------3---|
|----2---------------------------|--------0-----------------------|
|0-------------------------------|----0---------------------------|
|----------------------------3---|2-------------------------------|
|--------------------------------|--------------------------------|
 
 |       |       |       |        |       |       |       |        
|------------0-------------------|------------0-------------------|
|----------------1---------------|----------------3---------------|
|--------0-----------0-----------|--------3-----------3-----------|
|----2---------------------------|----3---------------------------|
|3-----------------------3---2---|1-------1---------------1---0---|
|--------------------------------|--------------------------------|
 
 |       |       |       |        |       |       |       |        
|------------7-------------------|------------0-------------------|
|--------6-------6---------------|--------1-------0---1-----------|
|----7---------------7-----------|----2-------------------2---1---|
|6-----------------------6/------|--------------------------------|
|--------------------------------|0-------------------------------|
|--------------------------------|--------------------------------|
 
 |       |       |       |        |       |       |       |        
|--------------------------------|----------------5---3---1---0---|
|--------------------------------|------------2-------------------|
|2-------------------------------|--------2-----------------------|
|----2---------------------------|----2---2-----------------------|
|--------3---2---0---------------|4-------------------------------|
|--------------------------------|--------------------------------|
 
 |       |       |       |        |       |       |       |        
|------------0---1---0-----------|----------------3---1h1h0-------|
|--------3---------------3-------|------------3---------------3---|
|----2---------------------------|--------0-----------------------|
|0-----------------------0-------|----0---------------------------|
|----------------------------3---|2-------------------------------|
|--------------------------------|--------------------------------|
 
 |       |       |       |        |       |       |       |        
|------------0-------------------|------------0-------------------|
|----------------1---------------|----------------3---------------|
|--------0-----------0-----------|--------3-----------3-----------|
|----2---------------------------|----3---------------------------|
|3-----------------------3---2---|1-------1---------------1---0---|
|--------------------------------|--------------------------------|
 
 |       |       |       |        |       |       |       |        
|------------5---4---------------|------------3-------------------|
|--------5-----------5-------5---|--------5-------5-------5-------|
|----4-------------------4-------|----4---------------4-------4---|
|--------------------------------|--------------------------------|
|--------------------------------|--------------------------------|
|4-------------------------------|3-------------------------------|
 
 |       |       |       |        |       |       |       |        
|--------2---------------2-------|------------------------0-------|
|------------4---------------1---|----------------0-----------0---|
|----2---------------2-----------|--------0-----------0-----------|
|----------------1---------------|------------4-------------------|
|--------------------------------|----2---------------------------|
|2-------------------------------|0-------------------------------|
 
 |       |       |       |        
|3-------------------------------|
|5-------------------------------|
|4-------------------------------|
|--------------------------------|
|--------------------------------|
|--------------------------------|
 

pompom020366@hotmail.com
Related for Triology Suite - Opus 5 tab