Song name
# A B C D E F G H I J K L M N O P Q R S T U V W X Y Z

Yo La Tengo - Today Is The Day tab

-------------------------------------------------------------------------------
			     Today is the Day - Yo La Tengo
-------------------------------------------------------------------------------
Tabbed by:kinder1984
Email:

Years of listening to this song prompted me to finally sit down and figure it out. Since
one else has it tabbed and considering Yo La's goofy tuning style, this was not easy.
I found something that sounds quite close. Remember not to get confused with the bass (I 
they use a 6 string) during the verse. First tab sorry if it sux.

Tuning:Standard

Intro: use slide
e|-----------------------------------------------------------------------------|
B|------/12--~10-------12--~10-------12--~10-----------------------------------|
G|-/7--------------7-------------7-------------12---12p11--~11-----------------|
D|-----------------------------------------------------------------------------|
A|-----------------------------------------------------------------------------|
E|-----------------------------------------------------------------------------|

Use slide (open slide down)
e|--------------------------------------------------------------------------------|
B|--------------------------------------------------------------------------------|
G|-7--6--4--2---------------------------------------------------------------------|
D|--------------------------------------------------------------------------------|
A|--------------------------------------------------------------------------------|
E|--------------------------------------------------------------------------------|

All Vibrato
e|------------------------------------------------------------------------------|
B|------------------------------------------------------------------------------|
G|-----------------------------------------------------------4------------------|
D|--~7~-~7~-~7~---~7~-~7~-~7~-~10~-~10~-~10~---~9~--~7~--~5~--------------------|
A|------------------------------------------------------------------------------|
E|------------------------------------------------------------------------------|

e|-----------------------------------------------------------------------------|
B|-----------------------------------------------------------------------------|
G|-----------------------------------------------------------------------------|
D|--~7~-~7~-~7~---~7~-~7~-~7~-~10~-~10~-~10~---~9~--~7~--~5~-------------------|
A|-----------------------------------------------------------------------------|
E|-----------------------------------------------------------------------------|

Verse: Repeat throughout verse. Listen for proper picking pattern if this isn't satisfactory
e|--------5-----5----5----5-------5----5----5----5------7----7----7----7----------|
B|-----3-----------------------5---------------------5----------------------------|
G|--------------------------------------------------------------------------------|
D|---4-------4----4----4----4-------4----4----4----4------4----4----4-------------|
A|--------------------------------------------------------------------------------|
E|--------------------------------------------------------------------------------|

e|---------5-----5----5----5-------5-----5----5----5-----------------------------|
B|------3-----------------------3------------------------------------------------|
G|-------------------------------------------------------------------------------|
D|---4--------4----4----4----4--------4----4----4--------------------------------|
A|-------------------------------------------------------------------------------|
E|-------------------------------------------------------------------------------|


| /  slide up
| \  slide down
| h  hammer-on
| p  pull-off
| ~  vibrato
| +  harmonic
| x  Mute note
===============================================================================
Tap to rate this tab
# A B C D E F G H I J K L M N O P Q R S T U V W X Y Z