Song name
# A B C D E F G H I J K L M N O P Q R S T U V W X Y Z

Yo La Tengo - Deeper Into Movies tab

Intro: (Loop Thing)
C
--(0)------------|
-------(3)-------|
-0-0-0-0-0-0-0-0-|
-0-0-0-0-0-0-0-0-|
-3-3-3-3-3-3-3-3-|
-----------------|

Intro (Part Two):
F (X2)            E (X2)
-----------------|-----------------|
-----0-----0---0-|----0-----0------|
-0-0-0-0-0-0-0-0-|-0-0-0-0-0-0-0-0-|
                        
                    
Tap to rate this tab
 
# A B C D E F G H I J K L M N O P Q R S T U V W X Y Z