Song name
# A B C D E F G H I J K L M N O P Q R S T U V W X Y Z

Yo - Yksi Askel Liikaa tab

              Yö - Yksi askel liikaa
        Im too lazy to put the chords here
        But when i have time i will.
  
Intro

e|-----2---------2-------2---------2--------2--------2--5-3-2-------------|
B|-------5-3--5----2-------5-3--5----2--------5-3--5----------5-2---------|
G|------------------------------------------------------------------------|
D|------------------------------------------------------------------------|
A|------------------------------------------------------------------------|
E|------------------------------------------------------------------------|


Then guitar solo

e|----7----7---7p5p3p2---2--------------------------------2----2---------|
B|-------------------------3--2-----2----------------2-3-----------2-----|
G|------------------------------------2--4-----4---4---------------------|
D|-----------------------------------------------------------------------|
A|-----------------------------------------------------------------------|
E|-----------------------------------------------------------------------|

e|-------2----2---2-------------------------------------------2-----------|
B|-2-3-5-3----3---3--5-3--3-3-5---2-h-3----3-2-------3-2------3-5--3-3----|
G|-2-4-6-------------6-4--4-4-6---2------------4-4-------4-4----6--4-4----|
D|------------------------------------------------------------------------|
A|------------------------------------------------------------------------|
E|------------------------------------------------------------------------|

e|--2-3----2----9-10--7--9---9-----9----------------------------------------|
B|--3-5--5-3---11-12--9-11--------------------------------------------------|
G|-------6------------------------------------------------------------------|
D|--------------------------------------------------------------------------|
A|--------------------------------------------------------------------------|
E|--------------------------------------------------------------------------|

Outro

e|-----2---------2-------2---------2--------2--------2--5-3-2-------------|
B|-------5-3--5----2-------5-3--5----2--------5-3--5----------5-2---------|
G|------------------------------------------------------------------------|
D|------------------------------------------------------------------------|
A|------------------------------------------------------------------------|
E|------------------------------------------------------------------------|

e|-----2--------|
B|--------5-----|
G|--------------|
D|--------------|
A|--------------|
E|--------------|

Thats all Please rate and comment
Tap to rate this tab
# A B C D E F G H I J K L M N O P Q R S T U V W X Y Z