Song name
# A B C D E F G H I J K L M N O P Q R S T U V W X Y Z

Yo - Enkelille chords

Highlighted       Show chord diagrams
--------------------------------------------------------------
	            Enkelille - Yo
--------------------------------------------------------------
Tabbed by: Karpassieni
Tuning: Standard


Intro: G D Em D G 


G            D         Em    D
  On kaikki pois lahteneet
        G         Em         D
  jattaneet yohon yksin kulkijan
     G           D
  On kaikki lahteneet
       Em           D
  Enaa yksin matkaa teet
      Em      D           G    D
  kun kaikki pois on lahteneet


G         D           Em    D
  Joo, ne rakasti sua niin
         G            Em            D
  Lapsen kasvot meikilla vain peitettiin
         G          D
  Meikki rapistunut on
          Em          D
  ja vain kylman kohtalon
      Em         D            G     G/F#
  sai lapsi jota rakastettiin niin


     Em                   D      C
  Ja kaiken taman jalkeen han on valmis kuolemaan
  Am                      D
  Itkien han yossä nuolee haavojaan
  Em               D    C
  Jaljellä on enaa arpi vanhan ystavan
  Am        C          Em    D
  vaikka odotitkin enemman


G        D           Em   D
  Vuodet kuluneet jo on
       G            Em         D
  joko paattynyt on matkas loputon?
        G                  D
  Veiko kotiin viimein sun ties
      Em               D
  vai vielako matkalla oot?
     Em      D                A
  Oi enkeli, vielako matkalla oot?



Solo: (4x)
e|---------------|---------------|---------------|---------------|
B|---------------|---------------|---------------|---------------|
G|--9--7---------|---------------|--7------------|---------------|
D|--------10--9--|-7~-------9-10-|-----10--9--7--|---------------|
A|---------------|---------------|---------------|--10~----------|
E|---------------|---------------|---------------|---------------|

e|---------------|----------------|-------------|------------------|
B|---------------|----------------|-------------|------------------|
G|---------------|----------------|-------------|------------------|
D|---------------|-7-7--------7-7-|-9--10--9--7-|-----------7-9-10-|
A|10-10-9-9-10-10|------10-10-----|-------------|-10--9-10---------|
E|---------------|----------------|-------------|------------------|
Tap to rate this tab
 
# A B C D E F G H I J K L M N O P Q R S T U V W X Y Z