Song name
# A B C D E F G H I J K L M N O P Q R S T U V W X Y Z

Yoakam Dwight - Fast As You tab

Verse and Solos:

E-----------------------------------------------------------------|
B-----------------------------------------------------------------|
G-----------------------------------------------------------------|
D-----------------------------------------------------------------|
A-2-2-4-4-5-5-4-4-2-2-4-4-5-5-4-4-2-2-4-4-5-5-4-4-2-2-4-4-5-5-4-4-|
E-0-0-0-0-0-0-0-0-0-0-0-0-0-0-0-0-0-0-0-0-0-0-0-0-0-0-0-0-0-0-0-0-|

E---------------------------------|
B---------------------------------|
G---------------------------------|
D-2-2-4-4-5-5-4-4-2-2-4-4-5-5-4-4-|
A-0-0-0-0-0-0-0-0-0-0-0-0-0-0-0-0-|
E---------------------------------|

E-------------------------------------------------|
B-------------------------------------------------|
G-------------------------------------------------|
D-------------------------------------------------|
A-2-2-4-4-5-5-4-4-2-2-4-4-5-5-4-4-|-4-4-4-4-4-4-4-|
E-0-0-0-0-0-0-0-0-0-0-0-0-0-0-0-0-|-2-2-2-2-2-2-2-|

E---------------------------------------------------|
B---------------------------------------------------|
G---------------------------------------------------|
D-2-2-4-4-5-5-4-4-|---------------------------------|
A-0-0-0-0-0-0-0-0-|-2-2-4-4-5-5-4-4-2-2-4-4-5-5-4-4-|
E-----------------|-0-0-0-0-0-0-0-0-0-0-0-0-0-0-0-0-|


Chorus:

E-------------------------------------|
B-------------------------------------|
G-------------------------------------|
D--2--4--5--4--2--4--5--4--2--4--5--4-|
A--0--0--0--0--0--0--0--0--0--0--0--0-|
E--0--0--0--0--0--0--0--0--0--0--0--0-|

E---------------------------------|
B---------------------------------|
G---------------------------------|
D---------------------------------|
A-2-2-4-4-5-5-4-4-2-2-4-4-5-5-4-4-|
E-0-0-0-0-0-0-0-0-0-0-0-0-0-0-0-0-|

E-------------------------------------|
B-------------------------------------|
G-------------------------------------|
D--2--4--5--4--2--4--5--4--2--4--5--4-|
A--0--0--0--0--0--0--0--0--0--0--0--0-|
E--0--0--0--0--0--0--0--0--0--0--0--0-|

E---------------------------|
B---------------------------|
G---------------------------|
D-4-4-4-4-4-4-4-5-4-4-4-4-4-|
A-2-2-2-2-2-2-2-2-2-5-2-2-2-|
E---------------0-0-0-0-5-0-|

Verse 1: (Play Verse 1 time)
Verse 2: (Play Verse 1 time)
Chorus: (Play Chorus 1 time)
Verse 3: (Play Verse 1 time)
Solo: (Play Verse 1 time)
Chorus: (Play chorus 1 time)
Verse 4: (Play verse 1 time with the last 3 bars repeated again)
Solo: (Play verse 4 times)

It took me 4 years to try to get this whole tab down, I hope it's useful... remember 
this is the rhythm of the song.

-Tyler H.
Tap to rate this tab
# A B C D E F G H I J K L M N O P Q R S T U V W X Y Z