Yodelice - Talk To Me tab

Talk to me (BO "Les petits mouchoirs")
Yodelice

tabbed by juliencolus@yahoo.fr

Dropped D tuning ( D A D G B E)

Capo 7


Intro :

|------------------|-0-----0--0-------|-3-----3--0-----0-|-3-----3--0-----0-|
|-1-----1--3-----3-|-----1----1-----0-|-----0--------1---|-----0--------1---|
|-----0--------0---|---2------2-------|---0--------2-----|---0--------2-----|
|---2--------0-----|----------2-------|------------------|------------------|
|-3--------2-------|-0--------0-------|----------0-------|----------0-------|
|------------------|------------------|-2----------------|-2----------------|



|-1-----1--0-----0-|-0-----0--0-----0-|
|-----1--------1---|-----1--------1---|
|---2--------2-----|---0--------0-----|
|------------------|------------------|
|------------------|------------------|
|-3--------3-------|-3--------3-------|



Premier couplet :


|------------------|-0-----0--0-------|-3-----3--0-----0-|-3-----3--0-----0-|
|-1-----1--3-----3-|-----1----1-----0-|-----0--------1---|-----0--------1---|
|-----0--------0---|---2------2-------|---0--------2-----|---0--------2-----|
|---2--------0-----|----------2-------|------------------|------------------|
|-3--------2-------|-0--------0-------|----------0-------|----------0-------|
|------------------|------------------|-2----------------|-2----------------|
Something just changed in your soul...


|-1-----1--0-----0-|-0-----0--0-----0-|------------------|-0-----0--0-------|
|-----1--------1---|-----1--------1---|-1-----1--3-----3-|-----1----1-----0-|
|---2--------2-----|---0--------0-----|-----0--------0---|---2------2-------|
|------------------|------------------|---2--------0-----|----------2-------|
|------------------|------------------|-3--------2-------|-0--------0-------|
|-3----------------|------------------|------------------|------------------|
				       Something just flaked in your eyes ...


|-3-----3--0-----0-|-3-----3--0-----0-|-1-----1--0-----0-|-0-----0--0-------|
|-----0--------1---|-----0--------1---|-----1--------1---|-----1------------|
|---0--------2-----|---0--------2-----|---2--------2-----|---0--------------|
|------------------|------------------|------------------|------------------|
|----------0-------|----------0-------|------------------|------------------|
|-2----------------|-2----------------|-3----------------|------------------|



Refrain :

|-0-----0--0-----0-|------------------|-0-----0--0-------|----------0-------|
|-----0--------0---|-1-----1--1-------|-----0------------|-1-----1----------|
|---2--------2-----|-----2------------|---2--------------|-----2------------|
|------------------|---2--------------|------------------|---2--------------|
|------------------|-0--------0-------|------------------|-0----------------|
|-2--------2-------|------------------|-2--------2-------|------------------|
Baby talk to me ...



|-1-----1--0-----1-|-1-----1--1-------|-0-----0--0-----0-|-0-----0--0-----0-|
|-----1--------1---|-----1------------|-----1--------0---|-----1--------0---|
|---2--------0-----|---2--------------|---2--------0-----|---2--------0-----|
|------------------|------------------|------------------|------------------|
|------------------|------------------|-0----------------|-0----------------|
|-3--------2-------|-0--------0-------|----------2-------|----------2-------|




Deuxième couplet :

|------------------|-0-----0--0-------|-3-----3--0-----0-|-3-----3--0-----0-|
|-1-----1--3-----3-|-----1----1-----0-|-----0--------1---|-----0--------1---|
|-----0--------0---|---2------2-------|---0--------2-----|---0--------2-----|
|---2--------0-----|----------2-------|------------------|------------------|
|-3--------2-------|-0--------0-------|----------0-------|----------0-------|
|------------------|------------------|-2----------------|-2----------------|
Seems like the sun is shining...



|-1-----1--0-----0-|-0-----0--0-----0-|------------------|-0-----0--0-------|
|-----1--------1---|-----1--------1---|-1-----1--3-----3-|-----1----1-----0-|
|---2--------2-----|---0--------0-----|-----0--------0---|---2------2-------|
|------------------|------------------|---2--------0-----|----------2-------|
|------------------|------------------|-3--------2-------|-0--------0-------|
|-3----------------|------------------|------------------|------------------|
				      Something got hold of your soul...



|-3-----3--0-----0-|-3-----3--0-----0-|-1-----1--0-----0-|-0-----0--0-------|
|-----0--------1---|-----0--------1---|-----1--------1---|-----1------------|
|---0--------2-----|---0--------2-----|---2--------2-----|---0--------------|
|------------------|------------------|------------------|------------------|
|----------0-------|----------0-------|------------------|------------------|
|-2----------------|-2----------------|-3----------------|------------------|




Refrain :

|-0-----0--0-----0-|------------------|-0-----0--0-------|----------0-------|
|-----0--------0---|-1-----1--1-------|-----0------------|-1-----1----------|
|---2--------2-----|-----2------------|---2--------------|-----2------------|
|------------------|---2--------------|------------------|---2--------------|
|------------------|-0--------0-------|------------------|-0----------------|
|-2--------2-------|------------------|-2--------2-------|------------------|
Baby talk to me ...



|-1-----1--0-----1-|-1-----1--1-------|-0-----0--0-----0-|-0-----0--0-----0-|
|-----1--------1---|-----1------------|-----1--------0---|-----1--------0---|
|---2--------0-----|---2--------------|---2--------0-----|---2--------0-----|
|------------------|------------------|------------------|------------------|
|------------------|------------------|-0----------------|-0----------------|
|-3--------2-------|-0--------0-------|----------2-------|----------2-------|




Pont : 

|------------------|-0----0-0---------|-3-----3--0-----0-|-3-----3--0-----0-|
|-1-----1--3-----3-|-----1--1-0------0|-----0--------1---|-----0--------1---|
|-----0--------0---|---2----2--2----2-|---0--------2-----|---0--------2-----|
|---2--------0-----|--------2---2--2--|------------------|------------------|
|-3--------2-------|-0------0----0----|----------0-------|----------0-------|
|------------------|------------------|-2----------------|-2----------------|



|-1-----1--0-----0-|-0-----0--0-----0-|
|-----1--------1---|-----1--------1---|
|---2--------2-----|---0--------0-----|
|------------------|------------------|
|------------------|------------------|
|-3----------------|------------------|




Dernier couplet :


|------------------|-0-----0--0-----0-|-3-----3--0-----0-|-3-----3--0-----0-|
|-1-----1--3-----3-|-----1--------1---|-----0--------1---|-----0--------1---|
|-----0--------0---|---2--------2-----|---0--------2-----|---0--------2-----|
|---2--------0-----|------------------|------------------|------------------|
|-3--------2-------|-0--------0-------|----------0-------|----------0-------|
|------------------|------------------|-2----------------|-2----------------|
Something just changed in my world...


|-1-----1--0-----0-|-0----------------|
|-----1--------1---|-----1------------|
|---2--------2-----|---0--------------|
|------------------|------------------|
|------------------|------------------|
|-3----------------|------------------|



 Something just changed in your soul
 Tell me baby what's wrong
 What's going on
 and you've been crying

 Something just flaked in your eyes
 There's a crack in your games
 Like? those broken days
 Am i seeing faith 


 Baby talk to me
 Please talk to me
 Baby talk it's me
 Talk to me  


 Seems like the sun is shining
 On everyone but me
 Won't you talk to me
 This is getting scary

 Something got hold of your soul
 You're like never before
 Is there something more
 Have i missed anything.


 Baby talk to me
 Please talk to me
 Baby talk it's me
 Talk to me  


 Something just changed in my world
 And it's killing me.
Tap to rate this tab
 
# A B C D E F G H I J K L M N O P Q R S T U V W X Y Z