Song name
# A B C D E F G H I J K L M N O P Q R S T U V W X Y Z

Yodelice - Monkeys Evolution tab

Title: Monkey's Evolution (Ghost Track)
Artist: Yodelice
Album: Cardioid
Tempo = 120

Intro and verse

Capo 8 fret.


E |----------------------------------------------------||
B |----------------------------------------------------||
G |----------------------------------------------------||
D |----------------------------------------------------||
A |--------------0h-2--------------------0h-2----------||
E |--0-----------------------0-------------------------||


--------------------------------------------------|||
--------------------------------------------------|||
o------------------------------------------------o|||
o------------------------------------------------o|||
-------------0h-2--------------------0h-2---------|||
-0-----------------------0------------------------|||


---------------------------------------------------|
---------------------------------------------------|
o--------------------------------------------------|
o------------------2-----------------------2-------|
-------------0h-2--------------------0h-2----------|
-0-----------------------0-------------------------|


----------------------------------------------------|
----------------------------------------------------|
----------------------------------------------------|
--------------------2-----------------------2-------|
--------------0h-2--------------------0h-2----------|
--0-----------------------0-------------------------|


----------------------------------------------------|
----------------------------------------------------|
----------------------------------------------------|
--------------------0-----------------------0-------|
--------------0h-2--------------------0h-2----------|
--3-----------------------3-------------------------|


---------------------------------------------------|||
---------------------------------------------------|||
--------------------------------------------------o|||
--------------------0-----------------------0-----o|||
--------------0h-2--------------------0h-2---------|||
--3-----------------------3------------------------|||
Tap to rate this tab
 
# A B C D E F G H I J K L M N O P Q R S T U V W X Y Z