Song name
# A B C D E F G H I J K L M N O P Q R S T U V W X Y Z

Yodelice - Insanity tab

Yodelice "Insanity"

Intro (version live)

|---7-------7-----|-7-------8-----|-8-------8------8-|-5-------5-----|
|-----8-------8---|---8-------8---|---8-------8------|---5-------5---|
|-------9-------9-|-----9-------9-|-----9-------9----|-----6-------6-| 
|-----------------|---------------|------------------|---------------|
|-----------------|---------------|------------------|---------------|
|0----------------|---------------|------------------|---------------|
 
|-5------3-----|--3------3-----|--------3------3-|-----3-------3-|
|---5------5---|----5------5---|------5------5---|---5-------5---|
|-----6------4-|------4------4-|---4h5-----5-----|-4-------4-----| 
|--------------|---------------|-----------------|---------------|
|--------------|---------------|-----------------|---------------|
|--------------|---------------|-----------------|---------------|

|-----3-------3--|------2------2-|-----2------2-|-----2------2-|
|---5-------5----|----4------4---|---4------4---|---4------4---|
|-3-------3------|--4------4-----|-2------2-----|-2------2-----|
|----------------|---------------|--------------|--------------|
|----------------|---------------|--------------|--------------|
|----------------|---------------|--------------|--------------|

|---------3---------------|-------2-----------|--------------------------|
|-------5---5---5---------|-----5---5-------5-|----2h4-------------------|
|-------------4---4---4---|---3-------3---3---|---2------4h5p4--2--------|
|-S>5---------------5---5-|-4-----------4-----|--4-----------------4-----|
|-------------------------|-------------------|-2------------------------|
|-------------------------|-------------------|-----------------------(0)|


Intro (x2) + couplets :

|----------------7---x---7-------------8---x---8-----------|
|----------------8---x---8-------------8---x---8-----------|
|----------------9---x---9-------------9---x---9-----------| 
|----------------------------------------------------------|
|----------------------------------------------------------|
|--------0-------0-------0-------0-----0-------0-----------|
         Bring                   me

|----------------5---x---5-------------3---x---3-----------|
|----------------5---x---5-------------5---x---5-----------|
|----------------6---x---6-------------4---x---4-----------| 
|----------------------------------------------------------|
|----------------------------------------------------------|
|--------0-------0-------0-------0-----0-------0-----------|
         Back       to   my      castle

|----------------3---x---3-------------3---x---3-----------|
|----------------5---x---5-------------5---x---5-----------|
|----------------5---x---5-------------4---x---4-----------| 
|----------------------------------------------------------|
|----------------------------------------------------------|
|--------0-------0-------0-------0-----0-------0-----------|
         in                                         
                   
|----------------3---x---3-------------2---x---2-----------|
|----------------5---x---5-------------4---x---4-----------|
|----------------3---x---3-------------4---x---4-----------| 
|----------------------------------------------------------|
|----------------------------------------------------------|
|--------0-------0-------0-------0-----0-------0-----------|
  the    sa          -           nd



Pré-refrain :


|-------x-----2-----x-----2-----x-----2-----x-----2-------|
|-------x-----4-----x-----4-----x-----4-----x-----4-------|
|-------x-----2-----x-----2-----x-----2-----x-----2-------| 
|---------------------------------------------------------|
|---------------------------------------------------------|
|---------------------------------------------------------|
  The   sun                           had         my

|-------x-----3-----x-----3-----x-----3-----x-----3-------|
|-------x-----5-----x-----5-----x-----5-----x-----5-------|
|-------x-----4-----x-----4-----x-----4-----x-----4-------| 
|---------------------------------------------------------|
|---------------------------------------------------------|
|---------------------------------------------------------|
        respect,                                      the

|-------x-----3-----x-----3-----x-----3-----x-----3-------|
|-------x-----5-----x-----5-----x-----5-----x-----5-------|
|-------x-----3-----x-----3-----x-----3-----x-----3-------| 
|---------------------------------------------------------|
|---------------------------------------------------------|
|---------------------------------------------------------|
        sea                           had   my    lo  - 

|-------x-----2-----x-----2-----x-----2-----x-----2-------|
|-------x-----4-----x-----4-----x-----4-----x-----4-------|
|-------x-----4-----x-----4-----x-----4-----x-----4-------| 
|---------------------------------------------------------|
|---------------------------------------------------------|
|---------------------------------------------------------|
        ve


Refrain

|--------------------x---7-----------------x---------------|
|----------------8---x---8-------------7---x---7-----------|
|----------------9---x---9-------------7---x---7-----------| 
|----------------9---------------------7-------7-----------|
|--------7---------------7-------5-------------5-----------|
|----------------------------------------------------------|
         One more for           for the road

|--------------------x---------------------x---7-----------|
|----------------5---x---5-------------8---x---8-----------|
|----------------5---x---5-------------9---x---9-----------| 
|----------------7-------7-------------9-------------------|
|--------------------------------7-------------7-----------|
|--------5---------------5---------------------------------|
         two for the       sake of it

|--------------------x---------------------x---7-----------|
|----------------5---x---5-------------8---x---8-----------|
|----------------5---x---5-------------9---x---9-----------| 
|----------------7-------7-------------9-------------------|
|--------------------------------7-------------7-----------|
|--------5---------------5---------------------------------|
         Three is a wasted crowd                                         
                   
|--------------------x---------------------x---------------|
|----------------8---x---8-------------8---x---8-----------|
|----------------9---x---9-------------9---x---9-----------| 
|---------------10------10------------10------10-----------|
|----------------------------------------------------------|
|--------8---------------8-------8-------------8-----------|
        I Dreamed                                 to be                                         

|--------------------x---------------------x----------|
|----------------7---x---7-------------7---x---7------|
|----------------8---x---8-------------8---x---8------| 
|----------------9-------9-------------9-------9------|
|-----------------------------------------------------|
|--------7---------------7-------7-------------7------| --> Couplet
in the creep                                                be in the creep


Bring me back my castle in the sand
When the stars were my only land
The sun had my respect
The sea had my love

One more for the road
Two for the sake of it
Three is a wasted crowd
I'll drink to being the fool

Four you and me
Five am I still alive
Six o'clock time to weep
I'll drink to being the creep

Bring me back my angels in the dark
Singing to the pounding of my heart
The sky had my respect
The sea had my love

One more for the road
Two for the sake of it
Three is a wasted crowd
I'll drink to being the fool

Four you and me
Five am I still alive
Six o'clock time to weep
I'll drink to insanity / Insanity...

Aaah, oooh, ooh-oooh, insanityyy...
Aaah, oooh, ooh-oooh, insanityyy...
Aaah, oooh, ooh-oooh... 
Tap to rate this tab
# A B C D E F G H I J K L M N O P Q R S T U V W X Y Z