Song name
# A B C D E F G H I J K L M N O P Q R S T U V W X Y Z

Yodelice - Another Second tab

Riff 1  
              C                  C                 C                      C             
E- 3 *- 0 *-||-------0-------0-|--------0--------|----------------------|---------------3*-0*-||
B-----------||---4-------3-----|---1-----------1-|-------1--------------|---1-----------------||
G-----------||-----------------|-----------3-----|---2----------------0-|-------0-------------||
D-----------||-----------------|-----------------|-----------0*- 3*-----|-----------3---------||
A-----------||-3---3---3---3---|-3---3---3---3---|-3---3---3--------3---|-3---3---3---3-------||
E-----------||-----------------|-----------------|----------------------|---------------------||

Riff 2
 Am                         Bb                    C                       C
E--------------------------|---------------------|-----------------------|-----------------|
B-------------1----------1-|-----------1---3---1-|-----------------------|-----------------|
G-----0*-2*-------0*-2-----|---0*-2*-------------|-------------0---2---3-|----2---0--------|
D--------------------------|---------------------|----0*-2*--------------|-----------3---2-|
A--0--------0---0------0---|-1-------1---1---1---|-3---------3---3---3---|-3---3---3---3---|
E--------------------------|---------------------|-----------------------|-----------------|


Break 
 Am                Bb                C                 C
E-----------------|-----------------|-----------------|-----------------|
B-----------------|-----------------|-----------------|-----------------|
G---2---2---2---2-|---0---0---0---0-|---0---0---0---0-|---0---0---0---0-|
D-----------------|-----------------|-----------------|-----------------|
A-0---0---0---0---|-1---1---1---1---|-3---3---3---3---|-3---3---3---1---|
E-----------------|-----------------|-----------------|-----------------|


Intro : Riff 1 (2x)
Couplet : Riff1 - Riff 2 - Riff 1 - riff 2
Refrain : RIff 2 ( 2x )
Intro 
Couplet
Refrain ( 2 x ) 
Break ( 2x )
Riff 2 ( 2x )
Refrain ( 2x )
Riff 2 ( 2x )
Intro ( 2x )
Tap to rate this tab
# A B C D E F G H I J K L M N O P Q R S T U V W X Y Z