Song name
# A B C D E F G H I J K L M N O P Q R S T U V W X Y Z

Yogscast - Dieselogg tab

(/) Slide Up  (\) Slide Down  (h) Hammer On  (p) Pull Off  (b) Bend (r) Release (v) Vibrato

TRUCKING TUESDAY! Diesel.ogg
Song from the game Car Transporter Simulator, that Simon and Lewis love so much.
I think this tab is in Drop D, but it works in Standard.

E|-----------------------------------------------------------------------------|
B|-----------------------------------------------------------------------------|
G|-----------------------------------------------------------------------------|
D|-----------------------------------------------------------------------------|
A|--7--7--10p9p7--------------------------------7--7--10p9p7------------10b12--|
E|--0--0----------9b10h9p7--9b10h9p7--9b10h9p7--0--0----------9b10h9p7---------|



E|-----------------------------------------------------------------------------|
B|-----------------------------------------------------------------------------|
G|-----------------------------------------------------------------------------|
D|-----------------------------------------------------------------------------|
A|--7--7--10p9p7--------------------------------7--7--10p9p7------------5--2---|
E|--0--0----------9b10p9p7--9b10h9p7--9b10h9p7--0--0----------9b10r9p7--3--0---|
							
Tap to rate this tab
 
# A B C D E F G H I J K L M N O P Q R S T U V W X Y Z