Song name
# A B C D E F G H I J K L M N O P Q R S T U V W X Y Z

Yohio - Sky Limit tab

Tuning: Drop B (B, F#, B, E, G#, Db) Low to high

This is my first submission and I kind of suck at working songs out so if there are any 
mistakes, I apologise. I watched some videos afterwards as well and the positions much 
up so I'm pretty confident with this.

This tab is just rhythm but here is the synth melody. You play the last bit on the 
fourth time.

Db|------------------------------|--------|
G#|------------------------------|--------|
E |------------------------------|--------|
B |------------------------------|-10-8-6-|
F#|--3-3-3--4--4--6--6--8--6--8--|--------|
B |------------------------------|--------|


Intro for Rhythm Guitar (Starts after the synth playes the elody four times)

Pretty much all palm muted

Db|-------------------------------------|
G#|-------------------------------------|
E |--5-5-5--6-6-6-6--8-8-8-8------------|
B |--5-5-5--6-6-6-6--8-8-8-8--3-3-3-3-3-| X 3
F#|--3-3-3--4-4-4-4--6-6-6-6--3-3-3-3-3-|
B |---------------------------3-3-3-3-3-|
     ^ ^ ^
These first three chords are played before each bar just like in the melody. Same goes 
for the verse.

Db|-------------------------------------|
G#|-------------------------------------|
E |--5-5-5--6-6-6-6---------------------|
B |--5-5-5--6-6-6-6--1-1-1-1--3-3-3-3-3-| X 1
F#|--3-3-3--4-4-4-4--1-1-1-1--3-3-3-3-3-|
B |------------------1-1-1-1--3-3-3-3-3-|


Verse is similar but with a slight variation (Still palm muted)

Db|-------------------------------------|
G#|-------------------------------------|
E |--5-5-5--6-6-6-6--5-5-5-5------------|
B |--5-5-5--6-6-6-6--5-5-5-5--3-3-3-3-3-|
F#|--3-3-3--4-4-4-4--3-3-3-3--3-3-3-3-3-|
B |---------------------------3-3-3-3-3-|

Db|-------------------------------------|
G#|-------------------------------------|
E |--5-5-5--6-6-6-6--8-8-8-8------------|
B |--5-5-5--6-6-6-6--8-8-8-8--3-3-3-3-3-|
F#|--3-3-3--4-4-4-4--6-6-6-6--3-3-3-3-3-|
B |---------------------------3-3-3-3-3-|

Db|-------------------------------------|
G#|-------------------------------------|
E |--5-5-5--6-6-6-6--5-5-5-5------------|
B |--5-5-5--6-6-6-6--5-5-5-5--3-3-3-3-3-|
F#|--3-3-3--4-4-4-4--3-3-3-3--3-3-3-3-3-|
B |---------------------------3-3-3-3-3-|

Db|-------------------------------------|
G#|-------------------------------------|
E |--5-5-5--6-6-6-6--8-8-8-8------------|
B |--5-5-5--6-6-6-6--8-8-8-8--3-3-3-3-3-|
F#|--3-3-3--4-4-4-4--6-6-6-6--3-3-3-3-3-|
B |---------------------------3-3-3-3-3-|

Db|-------------------------------------|
G#|-------------------------------------|
E |--5-5-5--6-6-6-6--5-5-5-5------------|
B |--5-5-5--6-6-6-6--5-5-5-5--3-3-3-3-3-|
F#|--3-3-3--4-4-4-4--3-3-3-3--3-3-3-3-3-|
B |---------------------------3-3-3-3-3-|

Db|-------------------------------------|
G#|-------------------------------------|
E |--5-5-5--6-6-6-6--8-8-8-8------------|
B |--5-5-5--6-6-6-6--8-8-8-8--3-3-3-3-3-|
F#|--3-3-3--4-4-4-4--6-6-6-6--3-3-3-3-3-|
B |---------------------------3-3-3-3-3-|

Db|-------------------------------------|
G#|-------------------------------------|
E |--5-5-5--6-6-6-6--5-5-5-5------------|
B |--5-5-5--6-6-6-6--5-5-5-5--3-3-3-3-3-|
F#|--3-3-3--4-4-4-4--3-3-3-3--3-3-3-3-3-|
B |---------------------------3-3-3-3-3-|

Db|-------------------------------------|-------|
G#|-------------------------------------|-------|
E |--5-5-5--6-6-6-6--8-8-8-8------------|-5-5-5-|
B |--5-5-5--6-6-6-6--8-8-8-8--3-3-3-3-3-|-5-5-5-|
F#|--3-3-3--4-4-4-4--6-6-6-6--3-3-3-3-3-|-3-3-3-|
B |---------------------------3-3-3-3-3-|-------|

Then a short pause...

Chorus

I strum the chords quite fast but you can just hold them if you want.

Db|---------------------------------|
G#|---------------------------------|
E |--6~------8~------5~---8~---10~--|
B |--6~------8~------5~---8~---10~--|
F#|--4~------6~------3~---6~---8 ~--|
B |---------------------------------|

Db|---------------------------------|
G#|---------------------------------|
E |--6~------8~------10~------------|
B |--6~------8~------10~------------|
F#|--4~------6~------8 ~------------|
B |---------------------------------|

Db|---------------------------------|
G#|---------------------------------|
E |--6~------8~------5~---8~---10~--|
B |--6~------8~------5~---8~---10~--|
F#|--4~------6~------3~---6~---8 ~--|
B |---------------------------------|

Db|---------------------------------|
G#|---------------------------------|
E |--6~------8~------10~------------|
B |--6~------8~------10~------------|
F#|--4~------6~------8 ~------------|
B |---------------------------------|

Breakdown

Pretty much that repeated several times with fills in between but I haven't worked them out.

Db|-----------|
G#|-----------|
E |-----------|
B |--1--0--0--|
F#|--1--0--0--|
B |--1--0--0--|


Verse repeats...


Chorus repeats...


Intro repeats...


Intro again while the guitar solo is happening...


Verse repeats...


Chorus repeats twice...


Breakdown repeats...


End

http://ameblo.jp/yohio
Tap to rate this tab
# A B C D E F G H I J K L M N O P Q R S T U V W X Y Z