Song name
# A B C D E F G H I J K L M N O P Q R S T U V W X Y Z

Yoko Kanno - Memory tab

-------------------------------------------------------------------------------
                               "Memory" - Yoko Kanno

                                   Cowboy Bebop
-------------------------------------------------------------------------------
_______________
Tabbed by Neph!
_______________

contact: comenaranja@gmail.com

enjoy!


Normal Tuning

e|-10-------13----------10--------------10--------13------10---------13-16-13----|
B|---------11------------------10----------------11-----------------10-----------|
G|--------10------------------10----------------10-----------------10------------|
D|-------------------------------------------------------------------------------|
A|-------------------------------------------------------------------------------|
E|-------------------------------------------------------------------------------|

e|-9------8----------------6---8-8-6-8-9-8-------6----1---------------1----------|
B|-------11---------7-----8----------9---------------4--------2-4----1-----------|
G|------10--------------10--------------------------3---------------2------------|
D|-------------------------------------------------------------------------------|
A|-------------------------------------------------------------------------------|
E|-------------------------------------------------------------------------------|

e|------1--4--6---7--9--6----6-----9--------6----------------------|--5--6--3--4-|
B|--0-------------------6---------9---8---------4------5-4----2~~~~|-------------|
G|-2--------------9--------------8--------------6-----5------------|-------------|
D|----------------8----------------------------------6--------3~~~~|--7--6--5--4-|
A|------------------------------------------------------------4~~~~|-------------|
E|-----------------------------------------------------------------|-------------|

...and repeat
Tap to rate this tab
# A B C D E F G H I J K L M N O P Q R S T U V W X Y Z