Song name
# A B C D E F G H I J K L M N O P Q R S T U V W X Y Z

Yoko Kanno - Waltz For Zizi tab

Waltz For Zizi
From Cowboy Bebop
Composed by Yoko Kanno



|-----------2s4------2---0----------------------0--2-s4--4--5--4--2-----|
|-0--0--0--------4---2--------2---0----------0-----------6--------2---2-|
|-------1------------2--------0---1------1---1-----------4--------2---4-|
|-------2------------2-------(2)-(2)----2---(2)---------(6)-------4---3-|
|-------2-----------(0)----------------2----------------(4)-------------|
|------(0)--------------------------------------------------------------|


|-----5s1-1--4--2-------------------------------------------------------|
|--2---------3------3--2---1---0--2-s4--4--2--------0---2--2s4--s2--2---|
|--2---------4---------2---2---2-----------2--------1---------------2---|
|--2--------(2)--------2---2---1-----------1--------2---------------1---|
|-(4)------------------0---0--(2)---------(2)------(2)-------------(2)--|
|-(2)----------------------------------------------(0)------------------|


|-------2s4-----2---0--------------------0--2-s4--4--5--4--2------------|
|---0--------4--2-------2---0---------0-----------6--------2--2---------|
|---1-----------2-------0---1-----1---1-----------4--------2--4---------|
|---2-----------2------(2)-(2)----2--(2)---------(6)-------4--3---------|
|---2----------(0)--------------2----------------(4)--------------------|
|--(0)------------------------------------------------------------------|


|------5s1-1s4--3--2-----2--0-------0-----------0--2s4--4---4--4--------|
|---2-----------5-----4--0-----2----2----2--3-----------7------6--------|
|---2-----------5--------1----------1-------------------5------6--------|
|---2-----------X-------(2)---------------------------------------------|
|--(4)----------0-------------------------------------------------------|
|--(2)------------------------------------------------------------------|


|-9-9---9--9-9--9--9-9--8--9-9--14--12--12--10--9----10--9--7-5-4-2---0-|
|--(10)-------------------------------------------10---------------(2)--|
|---9---9--9-9--9--9-9--8--9-9--14--13--13--11--9----11--9--7-6-4-2---1-|
|-------------------------------------------------11--------------------|
|-----------------------------------------------------------------------|
|-----------------------------------------------------------------------|


|-(------------0)--7--7--7-7--7--7-7--6--7-7-s9--7--5--4--7--5--4--2--0-|
|-(------------0)-(8)---------------------------------------------------|
|-(----------1--)--7--7--7-7--7--7-7--6--7-7--9--7--6--4--7--6--4--2--1-|
|-(--------2----)-------------------------------------------------------|
|-(------2------)-------------------------------------------------------|
|-(0-2-4--------)-------------------------------------------------------|



|--(9---h10p9h10p9h10p9---)----9---9--9-9--9--9-9--8--9-9--14--12--12---|
|--(-------------------h10)---(10)--------------------------------------|
|------------------------------9---9--9-9--9--9-9--8--9-9--14--13--13---|
|-----------------------------------------------------------------------|
|-----------------------------------------------------------------------|
|-----------------------------------------------------------------------|


|---10--9--9------10--9--7----5-4-7---2------------(2----------------2)-|
|-------------10-----------------------------------(--3-2-0---------2-)-|
|---11--9--9------11--9--7----6-4-7---2------------(--------2------2--)-|
|-------------11-----------------------------------(----------4---0---)-|
|-----------------------------------------------------------------------|
|-----------------------------------------------------------------------|


|---7----7--7-7--7--7-7--6--7-7--10--9--7-s9--4--7----5-----------------|
|--(8)----------------------------------------------------(5-----5----)-|
|---7----7--7-7--7--7-7--6--7-7--11--9--7--9--4--7----6---(--6-----6--)-|
|---------------------------------------------------------(----7-----7)-|
|-----------------------------------------------------------------------|
|-----------------------------------------------------------------------|


|-----------2s4------2---0----------------------0--2-s4--4--5--4--2-----|
|-0--0--0--------4---2--------2---0----------0-----------6--------2---2-|
|-------1------------2--------0---1------1---1-----------4--------2---4-|
|-------2------------2-------(2)-(2)----2---(2)---------(6)-------4---3-|
|-------2-----------(0)----------------2----------------(4)-------------|
|------(0)--------------------------------------------------------------|


|-----5s1-1--4--2-------------------------------------------------------|
|--2---------3------3--2---1---0--2-s4--4--2--------0---2--2s4--s2--2---|
|--2---------4---------2---2---2-----------2--------1---------------2---|
|--2--------(2)--------2---2---1-----------1--------2---------------1---|
|-(4)------------------0---0--(2)---------(2)------(2)-------------(2)--|
|-(2)----------------------------------------------(0)------------------|


|-------2s4-----2---0--------------------0--2-s4--4--5--4--2------------|
|---0--------4--2-------2---0---------0-----------6--------2--2---------|
|---1-----------2-------0---1-----1---1-----------4--------2--4---------|
|---2-----------2------(2)-(2)----2--(2)---------(6)-------4--3---------|
|---2----------(0)--------------2----------------(4)--------------------|
|--(0)------------------------------------------------------------------|


|------s5--1--4----2--9---------12------14------12----------------------|
|---2---------6-------11----12--10------14------12----------------------|
|---2---------6-------11--------11------14------9-------------9---------|
|---2-----------------------------------12------9--------9--------------|
|--(4)------------------------------------------------------------------|
|--(2)-----------------------------------------------0------------------|
Tap to rate this tab
# A B C D E F G H I J K L M N O P Q R S T U V W X Y Z