Yoko Kanno - Is It Real tab

Is It Real?
From Cowboy Bebop Knockin' on Heaven's Door
Composed by Yoko Kanno


Verse

e----0-----0-----0-----0-|
B----0-----0-----0-----0-|
G------------------------|
D-------------------1----|
A-0-----2-----4----------|
E------------------------|



Chorus

e----0-----3-----------0-----0-----3-----3--------|
B----0-----0-----0-----0-----0-----0-----0-----0--|
G----------------1-----------------------------1--|
D-2-----2-----1-----------------2-----1-----------|
A-------------------------4-----------------------|
E-------------------4-----------------------4-----|



e----0-----3--------------------------------------|
B----0-----0-----0-----2-----2-----3-----3--2-----|
G----------------1-----2-----2-----2-----2--2-----|
D-------2-----1-----2-----------------------------|
A-4-----------------------------------------0-----|
E-------------------------3-----3-----3-----------|
Tap to rate this tab
 
# A B C D E F G H I J K L M N O P Q R S T U V W X Y Z