Song name
# A B C D E F G H I J K L M N O P Q R S T U V W X Y Z

Yoko Kanno - Didnt It Rain tab

-------------------------------------------------------------------------------
                             Didn't It Rain - Yoko Kanno
-------------------------------------------------------------------------------
Tabbed by: Novemberregen

Yoko Kanno - Didn't it Rain
Arjuna Soundtrack - Arjuna Onna No Minato
Released: 23 May 2001

Standard Tuning
Capo 7th fret


Chords

e|------0------0------0------0----------------------------------------------|
b|-----3------3------1------1-----------------------------------------------|
g|----0------0------0------0------------------------------------------------|
D|---2------0------2------2-------------------------------------------------|
A|--0------0------0------3--------------------------------------------------|
E|-1------3------0------0---------------------------------------------------|

Finger Picking - Intro & Verse

e|------0---0---0---0---0---0---0---0---------------------------------------|
B|-----3---3---3---3---1---1---1---1----------------------------------------|
G|----0---0---0---0---0---0---0---0-----------------------------------------|
D|--------------------------------------------------------------------------|
A|-------------------0---0---3---3------------------------------------------|
E|---1---1---3---3----------------------------------------------------------|

Reapet


It's obviously not 100% correct and it also sounds good and close to the song with the 
Capo on other frets.
So feel free to create your own version. Any corrections are very welcome.
Tap to rate this tab
# A B C D E F G H I J K L M N O P Q R S T U V W X Y Z