Song name
# A B C D E F G H I J K L M N O P Q R S T U V W X Y Z

Yoko Shimomura - Kingdom Hearts - Traverse Town tab

e------0-3--2-0--2--------------------0--------------0-|
B--3----------------3--------0---3-2------0---3-2--3---|
G----------------------2-------------------------------|
D------------------------------------------------------|
A------------------------------------------------------|
E------------------------------------------------------|

e------0-3--2-0--2--------------------0--------------0-|
B--3----------------3--------0---3-2------0---3-2--3---|
G----------------------2-------------------------------|
D------------------------------------------------------|
A------------------------------------------------------|
E------------------------------------------------------|

e--1-----5--3---8-----5--3--1--0--3--1--0--------------0-1--0--3--1h3p1---0---|
B------------------------------------------1---3---1-3----------------------3-|
G-----------------------------------------------------------------------------|
D-----------------------------------------------------------------------------|
A-----------------------------------------------------------------------------|
E-----------------------------------------------------------------------------|


And repeat all over again!!
Please tell me if there is any mistake
Tap to rate this tab
# A B C D E F G H I J K L M N O P Q R S T U V W X Y Z