Song name
# A B C D E F G H I J K L M N O P Q R S T U V W X Y Z

Yoko Shimomura - Hes A Pirate tab

He's A Pirate (TAB) (Yōko Shimomura)
ARRANGED BY: Joshua Abraham Mosca

E---------|---0-1-1-|-1-3-0-0-|-----------|
B---1-3-3-|-3-------|---------|--3-1-3----|
G-2-------|---------|---------|-----------|
D---------|---------|---------|-----------|
A---------|---------|---------|-----------|
E---------|---------|---------|-----------|
 2x

E---------|---0-1-1-|-1-3-5-6-6-|-5-3-5---|---0-1-1-3-5----|
B---1-3-3-|-3-------|-----------|-------3-|-3------------3-|
G-2-------|---------|-----------|---------|----------------|
D---------|---------|-----------|---------|----------------|
A---------|---------|-----------|---------|----------------|
E---------|---------|-----------|---------|----------------|

E---1-0--0-|-1--0-|
B-3--------|---3--|
G----------|------|
D----------|------|
A----------|------|
E----------|------|
Tap to rate this tab
# A B C D E F G H I J K L M N O P Q R S T U V W X Y Z