Yokozuna - Sexo Y Marihuana tab

 YOKOZUNA SEXO Y MARIHUANA

-|------------------------------------------------------------------------l
-|------------------------------------------------------------------------l
-|----------2---------------4--2--------2--------4--2---------------------l X 2
-|---2--4-------4--2--2--4--------2--4-----4--2----------------2--4-------l
-|-------------------------------------------------------2--4--------2--4-l
-|------------------------------------------------------------------------l


-|-------------------------------------------------------------|
-|-------------------------------------------------------------|
-|----------2----------------4--2-3-3-3--2--4--2---------------|
-|---2--4-------4--2--2--4------------------------4--2---------|
-|-------------------------------------------------------------|
-|-------------------------------------------------------------|


-|------------------------------------------------------------------------l
-|------------------------------------------------------------------------l
-|----------2---------------4--2--------2--------4--2---------------------l X 2
-|---2--4-------4--2--2--4--------2--4-----4--2----------------2--4-------l
-|-------------------------------------------------------2--4--------2--4-l
-|------------------------------------------------------------------------l


-|-------------------------------------------------------------|
-|-------------------------------------------------------------|
-|----------2----------------4--2-3-3-3--4--2--4--2------------|
-|---2--4-------4--2--2--4----------------------------2-\\-5---|
-|-------------------------------------------------------------|
-|-------------------------------------------------------------|


-|-----------------------------------------------------------------------l
-|-----------------------------------------------------------------------l
-|---------5--------------7--5-----------5--7--5------7-6-5--------------l
-|---5--7-----7--5--5--7-----------5--7----------7------------7-6-5------l
-|-----------------------------------------------------------------------l
-|-----------------------------------------------------------------------l


-|--------------------------------------------------------------------------------------l
-|--------------------------------------------------------------------------------------l
-|----------2---------------4--2--------2--3--3--3--2--4--2-----------------------------l
-|---2--4-------4--2--2--4--------2--4-----------------------4--4-3-2-------4-3-2-------l
-|--------------------------------------------------------------------4-3-2-------4-3-2-l
-|--------------------------------------------------------------------------------------l

-|-------------------------------------------------------------|
-|-------------------------------------------------------------|
-|------------------------------------------------------------- x 3
-|---4-3-2-----------------------------------------------------|
-|---------4-2-3-----------------------------------------------|
-|-------------------------------------------------------------|


-|------------------------------------------------------------------------l
-|------------------------------------------------------------------------l
-|----------2---------------4--2--------2--------4--2---------------------l X 2
-|---2--4-------4--2--2--4--------2--4-----4--2----------------2--4-------l
-|-------------------------------------------------------2--4--------2--4-l
-|------------------------------------------------------------------------l


-|--------------------------------------------------------------|
-|--------------------------------------------------------------|
-|----------2----------------4--2-3-3-3--2--4--2-----2--4--2----|
-|---2--4-------4--2--2--4------------------------4-----------4-|
-|--------------------------------------------------------------|
-|--------------------------------------------------------------|



-|-------------------------------------------------------------|
-|-------------------------------------------------------------|
-|------------6-5-4-------------------------------------------- x 8
-|---4-3-2----6-5-4--------------------------------------------|
-|------------4-3-2--------------------------------------------|
-|-------------------------------------------------------------|

-|-------------------------------------------------------------|
-|-------------------------------------------------------------|
-|-------------------------------------------------------------|
-|------------------------------------------------------------- x 4
-|---0-2222222222----------------------------------------------|
-|-------------------------------------------------------------|

-|-------------------------------------------------------------|
-|-------------------------------------------------------------|
-|-------------------------------------------------------------|
-|---2-4-4-4--7-\\-9-\\-11------------------------------------- x 12
-|---2-4-4-4--7-\\-9-\\-11-------------------------------------|
-|---0-2-2-2--5-\\-7-\\-9--------------------------------------|


-|-------------------------------------------------------------|
-|-------------------------------------------------------------|
-|-------------------------------------------------------------|
-|---11-------------------------------------------------------- x 25
-|---11--------------------------------------------------------|
-|---9---------------------------------------------------------|




-|-------------------------------------------------------------|
-|-------------------------------------------------------------|
-|------------6-5-4-------------------------------------------- x 12
-|---4-3-2----6-5-4--------------------------------------------|
-|------------4-3-2--------------------------------------------|
-|-------------------------------------------------------------|


Se aceptan Correcciones y comentarios.
                                                                                        
darkigniz
darkigniz1@hotmail.com
Tap to rate this tab
 
# A B C D E F G H I J K L M N O P Q R S T U V W X Y Z