Yokozuna - Crank tab

Yokozuna - Crank

 1=E   4=D
 2=B   5=A
 3=G   6=D

P.M.= Palm Muted
x - dead mute
/ - slide up
\\ - slide down
~ vibrato 

-|------------------------------------------l
-|------------------------------------------l
-|------------------------------------------l X3
-|------------------------------------------l
-|---0-9-11-0-9-11-0-9-11-0-10-0--9-9-9-0---l
-|---0-9-11-0-9-11-0-9-11-0-10-0--9-9-9-0---l

-|------------------------------------------l
-|------------------------------------------l
-|------------------------------------------l X4
-|------------------------------------------l
-|---9-11-0-9-11-0-9-11-0-10-0--9-11-9-0----l
-|---9-11-0-9-11-0-9-11-0-10-0--9-11-9-0----l


-|-------------------------------------------|
-|-------------------------------------------|
-|-------------------------------------------|
-|-------------------------------------------|
-|---9-11-9-0--------------------------------|
-|---9-11-9-0--------------------------------|

P.M.
-|-------------------------------------------------------------|
-|-------------------------------------------------------------|
-|-------------------------------------------------------------|
-|------------------------------------------------------------- X 5
-|-000000000000-0-0-0-0-0-0------------------------------------|
-|-000000000000-0-0-0-0-0-0------------------------------------|


-|------------------------------------------l
-|------------------------------------------l
-|------------------------------------------l X4
-|------------------------------------------l
-|---9-11-0-9-11-0-9-11-0-10-0--9-11-9-0----l
-|---9-11-0-9-11-0-9-11-0-10-0--9-11-9-0----l


               P.M.
-|--------------------------------------------|
-|--------------------------------------------|
-|--------------------------------------------|
-|--------------------------------------------|
-|---9-11-9----44444444--22222222-------------|
-|---9-11-9----44444444--22222222-------------|



-|------------------------------------------l
-|------------------------------------------l
-|------------------------------------------l X2
-|------------------------------------------l
-|---9-11-0-9-11-0-9-11-0-10-0--9-11-9-0----l
-|---9-11-0-9-11-0-9-11-0-10-0--9-11-9-0----l


P.M.
-|-------------------------------------------------------------|
-|-------------------------------------------------------------|
-|-------------------------------------------------------------|
-|------------------------------------------------------------- X 4 
-|-000000000000-0-0-0-0-0-0------------------------------------|
-|-000000000000-0-0-0-0-0-0------------------------------------|


-|------------------------------------------l
-|------------------------------------------l
-|------------------------------------------l X4
-|------------------------------------------l
-|---9-11-0-9-11-0-9-11-0-10-0--9-11-9-0----l
-|---9-11-0-9-11-0-9-11-0-10-0--9-11-9-0----l

               P.M.
-|-------------------------------------------------------------|
-|-------------------------------------------------------------|
-|-------------------------------------------------------------|
-|-------------------------------------------------------------|
-|---9-11-9----44444444--22222222------------------------------|
-|---9-11-9----44444444--22222222------------------------------|


-|------------------------------------------l
-|------------------------------------------l
-|------------------------------------------l X2
-|------------------------------------------l
-|---9-11-0-9-11-0-9-11-0-10-0--9-11-9-0----l
-|---9-11-0-9-11-0-9-11-0-10-0--9-11-9-0----l

               P.M.
-|-------------------------------------------------------------|
-|-------------------------------------------------------------|
-|-------------------------------------------------------------|
-|-------------------------------------------------------------|
-|---9-11-9----44444444--22222222------------------------------|
-|---9-11-9----44444444--22222222------------------------------|


-|------------------------------------------l
-|------------------------------------------l
-|------------------------------------------l X2
-|------------------------------------------l
-|---9-11-0-9-11-0-9-11-0-10-0--9-11-9-0----l
-|---9-11-0-9-11-0-9-11-0-10-0--9-11-9-0----l


-|-------------------------------------------------------------------------|
-|-------------------------------------------------------------------------|
-|-------------------------------------------------------------------------|
-|----------------11-11-11-11-11-11-9----9------------------9--------------|
-|---9-11-9-0-0-----------------------11---11---9--10--11------11--11-11---|
-|---9-11-9-0-0----------------------------------------------------11-11---|



-|-------------------------------------------------------------------------l
-|-------------------------------------------------------------------------l
-|-------------------------------------------------------------------------l X 7
-|----------------11-11-11-11-11-11-9----9-----------------9---------------l
-|------------------------------------11---11---9--10--11-----11--11-11----l
-|----------------------------------------------------------------11-11----l


-|----------------------------------------------------------------------|
-|----------------------------------------------------------------------|
-|---------------------------------------------------------------------- X 4
-|----------------------------------------------------------------------|
-|--------------------------------------------0-------------------------|
-|---0-1-2-0-2-5-0-1-2-0-2-5---5-5-5-5-5--4-2-0-------------------------|

        P.M.
-|----------------------------------------------------|
-|----------------------------------------------------|
-|----------------------------------------------------|
-|----------------------------------------------------|
-|------44444444--22222222----------------------------|
-|------44444444--22222222----------------------------|


-|------------------------------------------l
-|------------------------------------------l
-|------------------------------------------l X2
-|------------------------------------------l
-|---9-11-0-9-11-0-9-11-0-10-0--9-11-9-0----l
-|---9-11-0-9-11-0-9-11-0-10-0--9-11-9-0----l

        P.M.
-|----------------------------------------------------|
-|----------------------------------------------------|
-|----------------------------------------------------|
-|----------------------------------------------------|
-|------44444444--22222222----------------------------|
-|------44444444--22222222----------------------------|


-|------------------------------------------l
-|------------------------------------------l
-|------------------------------------------l X2
-|------------------------------------------l
-|---9-11-0-9-11-0-9-11-0-10-0--9-11-9-0----l
-|---9-11-0-9-11-0-9-11-0-10-0--9-11-9-0----l

P.M.
-|----------------------------------------------------|
-|----------------------------------------------------|
-|----------------------------------------------------|
-|----------------------------------------------------|
-|------44444444--22222222----------------------------|
-|------44444444--22222222----------------------------|

P.M.

-|----------------------------------------------------|
-|----------------------------------------------------|
-|----------------------------------------------------|
-|----------------------------------------------------|
-|------44444444--22222222----------------------------|
-|------44444444--22222222----------------------------|



-|----------------------------------------------------|
-|----------------------------------------------------|
-|----------------------------------------------------|
-|----------------------------------------------------|
-|------44444444--77777777--4444444444--77777777777---|
-|------44444444--77777777--4444444444--77777777777---|


-|---------------------------------------------------------|
-|---------------------------------------------------------|
-|---------------------------------------------------------|
-|---------------------------------------------------------|
-|------4-----7-----9--------11---------------------11-11--|
-|------4-----7-----9--------11---------------------11-11--|


Se aceptan Correcciones y comentarios.
                                                                                        
darkigniz
darkigniz1@hotmail.com
Tap to rate this tab
 
# A B C D E F G H I J K L M N O P Q R S T U V W X Y Z