Song name
# A B C D E F G H I J K L M N O P Q R S T U V W X Y Z

Yokozuna - Crank tab

                                  Yokozuna - Crank




by Doppelganger


Afinacion DADGBE


           x3

-|------------------------------------------------------------------------|
-|------------------------------------------------------------------------|
-|------------------------------------------------------------------------|
-|------------------------------------------------------------------------|
-|------------------------------------------------------------------------|
-|-0-9-11--0-9-11--0-9-11----9---------8--9--8--0-------------------------|

           x1                  
-|------------------------------------------------------------------------|
-|------------------------------------------------------------------------|
-|------------------------------------------------------------------------|
-|-------------------------------------8--9--8--0-------------------------|
-|-------------------------------------8--9--8--0-------------------------|
-|-0-9-11--0-9-11--0-9-11----9---------8--9--8--0-------------------------|


           x3
-|------------------------------------------------------------------------|
-|------------------------------------------------------------------------|
-|------------------------------------------------------------------------|
-|-0-9-11--0-9-11--0-9-11----9---------8--9--8--0-------------------------|
-|-0-9-11--0-9-11--0-9-11----9---------8--9--8--0-------------------------|
-|-0-9-11--0-9-11--0-9-11----9---------8--9--8--0-------------------------|

           x1
-|------------------------------------------------------------------------|
-|------------------------------------------------------------------------|
-|------------------------------------------------------------------------|
-|-0-9-11--0-9-11--0-9-11----9---------8--9--8----------------------------|
-|-0-9-11--0-9-11--0-9-11----9---------8--9--8----------------------------|
-|-0-9-11--0-9-11--0-9-11----9---------8--9--8----------------------------|

-|------------------------------------------------------------------------|
-|------------------------------------------------------------------------|
-|------------------------------------------------------------------------|
-|-0-0-0-0-0-0-0-0-0-0-0-0-0-0-0-0-0-0-0-0-0-0-0-0-0-0-0-0-0-0-0-0-0-0-0--|
-|-0-0-0-0-0-0-0-0-0-0-0-0-0-0-0-0-0-0-0-0-0-0-0-0-0-0-0-0-0-0-0-0-0-0-0--|
-|-0-0-0-0-0-0-0-0-0-0-0-0-0-0-0-0-0-0-0-0-0-0-0-0-0-0-0-0-0-0-0-0-0-0-0--|

           x3
-|------------------------------------------------------------------------|
-|------------------------------------------------------------------------|
-|------------------------------------------------------------------------|
-|-0-9-11--0-9-11--0-9-11----9---------8--9--8--0-------------------------|
-|-0-9-11--0-9-11--0-9-11----9---------8--9--8--0-------------------------|
-|-0-9-11--0-9-11--0-9-11----9---------8--9--8--0-------------------------|
           x1
-|------------------------------------------------------------------------|
-|------------------------------------------------------------------------|
-|------------------------------------------------------------------------|
-|-0-9-11--0-9-11--0-9-11----9---------8--9--8----------------------------|
-|-0-9-11--0-9-11--0-9-11----9---------8--9--8----------------------------|
-|-0-9-11--0-9-11--0-9-11----9---------8--9--8----------------------------|


-|------------------------------------------------------------------------|
-|------------------------------------------------------------------------|
-|------------------------------------------------------------------------|
-|-4-4-4-4-4-4-4-4-4-4-4--7-7-7-7-7-7-7-7-7-7-7---------------------------|
-|-4-4-4-4-4-4-4-4-4-4-4--7-7-7-7-7-7-7-7-7-7-7---------------------------|
-|-4-4-4-4-4-4-4-4-4-4-4--7-7-7-7-7-7-7-7-7-7-7---------------------------|

           x1
-|------------------------------------------------------------------------|
-|------------------------------------------------------------------------|
-|------------------------------------------------------------------------|
-|-0-9-11--0-9-11--0-9-11----9---------8--9--8--0-------------------------|
-|-0-9-11--0-9-11--0-9-11----9---------8--9--8--0-------------------------|
-|-0-9-11--0-9-11--0-9-11----9---------8--9--8--0-------------------------|


           x1
-|------------------------------------------------------------------------|
-|------------------------------------------------------------------------|
-|------------------------------------------------------------------------|
-|-0-9-11--0-9-11--0-9-11----9---------8--9--8----------------------------|
-|-0-9-11--0-9-11--0-9-11----9---------8--9--8----------------------------|
-|-0-9-11--0-9-11--0-9-11----9---------8--9--8----------------------------|



-|------------------------------------------------------------------------|
-|------------------------------------------------------------------------|
-|------------------------------------------------------------------------|
-|-0-0-0-0-0-0-0-0-0-0-0-0-0-0-0-0-0-0-0-0-0-0-0-0-0-0-0-0-0-0-0-0-0-0-0--|
-|-0-0-0-0-0-0-0-0-0-0-0-0-0-0-0-0-0-0-0-0-0-0-0-0-0-0-0-0-0-0-0-0-0-0-0--|
-|-0-0-0-0-0-0-0-0-0-0-0-0-0-0-0-0-0-0-0-0-0-0-0-0-0-0-0-0-0-0-0-0-0-0-0--|


           x3
-|------------------------------------------------------------------------|
-|------------------------------------------------------------------------|
-|------------------------------------------------------------------------|
-|-0-9-11--0-9-11--0-9-11----9---------8--9--8--0-------------------------|
-|-0-9-11--0-9-11--0-9-11----9---------8--9--8--0-------------------------|
-|-0-9-11--0-9-11--0-9-11----9---------8--9--8--0-------------------------|


           x1
-|------------------------------------------------------------------------|
-|------------------------------------------------------------------------|
-|------------------------------------------------------------------------|
-|-0-9-11--0-9-11--0-9-11----9---------8--9--8----------------------------|
-|-0-9-11--0-9-11--0-9-11----9---------8--9--8----------------------------|
-|-0-9-11--0-9-11--0-9-11----9---------8--9--8----------------------------|




-|------------------------------------------------------------------------|
-|------------------------------------------------------------------------|
-|------------------------------------------------------------------------|
-|-4-4-4-4-4-4-4-4-4-4-4--7-7-7-7-7-7-7-7-7-7-7---------------------------|
-|-4-4-4-4-4-4-4-4-4-4-4--7-7-7-7-7-7-7-7-7-7-7---------------------------|
-|-4-4-4-4-4-4-4-4-4-4-4--7-7-7-7-7-7-7-7-7-7-7---------------------------|


           x1
-|------------------------------------------------------------------------|
-|------------------------------------------------------------------------|
-|------------------------------------------------------------------------|
-|-0-9-11--0-9-11--0-9-11----9---------8--9--8--0-------------------------|
-|-0-9-11--0-9-11--0-9-11----9---------8--9--8--0-------------------------|
-|-0-9-11--0-9-11--0-9-11----9---------8--9--8--0-------------------------|


           x1
-|------------------------------------------------------------------------|
-|------------------------------------------------------------------------|
-|------------------------------------------------------------------------|
-|-0-9-11--0-9-11--0-9-11----9---------8--9--8----------------------------|
-|-0-9-11--0-9-11--0-9-11----9---------8--9--8----------------------------|
-|-0-9-11--0-9-11--0-9-11----9---------8--9--8----------------------------|


-|------------------------------------------------------------------------|
-|------------------------------------------------------------------------|
-|------------------------------------------------------------------------|
-|-4-4-4-4-4-4-4-4-4-4-4--7-7-7-7-7-7-7-7-7-7-7---------------------------|
-|-4-4-4-4-4-4-4-4-4-4-4--7-7-7-7-7-7-7-7-7-7-7---------------------------|
-|-4-4-4-4-4-4-4-4-4-4-4--7-7-7-7-7-7-7-7-7-7-7---------------------------|


           x1
-|------------------------------------------------------------------------|
-|------------------------------------------------------------------------|
-|------------------------------------------------------------------------|
-|-0-9-11--0-9-11--0-9-11----9---------8--9--8--0-------------------------|
-|-0-9-11--0-9-11--0-9-11----9---------8--9--8--0-------------------------|
-|-0-9-11--0-9-11--0-9-11----9---------8--9--8--0-------------------------|


           x1
-|------------------------------------------------------------------------|
-|------------------------------------------------------------------------|
-|------------------------------------------------------------------------|
-|-0-9-11--0-9-11--0-9-11----9---------8--9--8------0-0-0-0---------------|
-|-0-9-11--0-9-11--0-9-11----9---------8--9--8------0-0-0-0---------------|
-|-0-9-11--0-9-11--0-9-11----9---------8--9--8------0-0-0-0---------------|


           x1
-|------------------------------------------------------------------------|
-|------------------------------------------------------------------------|
-|--9999------------------------------------------------------------------|
-|-------10-9-10-9--------9--10--9---0-0----------------------------------|
-|------------------8--10------------0-0----------------------------------|
-|-----------------------------------0-0----------------------------------|



           x7
-|------------------------------------------------------------------------|
-|------------------------------------------------------------------------|
-|----99------------------------------------------------------------------|
-|-------10-9-10-9--------9--10--9---0-0----------------------------------|
-|------------------8--10------------0-0----------------------------------|
-|-----------------------------------0-0----------------------------------|


          x4
-|------------------------------------------------------------------------|
-|------------------------------------------------------------------------|
-|------------------------------------------------------------------------|
-|-0--2--4--0--4--6---0--2--4--0--4--6----6--4--2--0----------------------|
-|-0--2--4--0--4--6---0--2--4--0--4--6----6--4--2--0----------------------|
-|-0--2--4--0--4--6---0--2--4--0--4--6----6--4--2--0----------------------|


-|------------------------------------------------------------------------|
-|------------------------------------------------------------------------|
-|------------------------------------------------------------------------|
-|-4-4-4-4-4-4-4-4-4-4-4--7-7-7-7-7-7-7-7-7-7-7---------------------------|
-|-4-4-4-4-4-4-4-4-4-4-4--7-7-7-7-7-7-7-7-7-7-7---------------------------|
-|-4-4-4-4-4-4-4-4-4-4-4--7-7-7-7-7-7-7-7-7-7-7---------------------------|


           x1
-|------------------------------------------------------------------------|
-|------------------------------------------------------------------------|
-|------------------------------------------------------------------------|
-|-0-9-11--0-9-11--0-9-11----9---------8--9--8--0-------------------------|
-|-0-9-11--0-9-11--0-9-11----9---------8--9--8--0-------------------------|
-|-0-9-11--0-9-11--0-9-11----9---------8--9--8--0-------------------------|


           x1
-|------------------------------------------------------------------------|
-|------------------------------------------------------------------------|
-|------------------------------------------------------------------------|
-|-0-9-11--0-9-11--0-9-11----9---------8--9--8----------------------------|
-|-0-9-11--0-9-11--0-9-11----9---------8--9--8----------------------------|
-|-0-9-11--0-9-11--0-9-11----9---------8--9--8----------------------------|


-|------------------------------------------------------------------------|
-|------------------------------------------------------------------------|
-|------------------------------------------------------------------------|
-|-4-4-4-4-4-4-4-4-4-4-4--7-7-7-7-7-7-7-7-7-7-7---------------------------|
-|-4-4-4-4-4-4-4-4-4-4-4--7-7-7-7-7-7-7-7-7-7-7---------------------------|
-|-4-4-4-4-4-4-4-4-4-4-4--7-7-7-7-7-7-7-7-7-7-7---------------------------|



           x1
-|------------------------------------------------------------------------|
-|------------------------------------------------------------------------|
-|------------------------------------------------------------------------|
-|-0-9-11--0-9-11--0-9-11----9---------8--9--8--0-------------------------|
-|-0-9-11--0-9-11--0-9-11----9---------8--9--8--0-------------------------|
-|-0-9-11--0-9-11--0-9-11----9---------8--9--8--0-------------------------|


           x1
-|------------------------------------------------------------------------|
-|------------------------------------------------------------------------|
-|------------------------------------------------------------------------|
-|-0-9-11--0-9-11--0-9-11----9---------8--9--8----------------------------|
-|-0-9-11--0-9-11--0-9-11----9---------8--9--8----------------------------|
-|-0-9-11--0-9-11--0-9-11----9---------8--9--8----------------------------|


-|------------------------------------------------------------------------|
-|------------------------------------------------------------------------|
-|------------------------------------------------------------------------|
-|-4-4-4-4-4-4-4-4-4-4-4--7-7-7-7-7-7-7-7-7-7-7---------------------------|
-|-4-4-4-4-4-4-4-4-4-4-4--7-7-7-7-7-7-7-7-7-7-7---------------------------|
-|-4-4-4-4-4-4-4-4-4-4-4--7-7-7-7-7-7-7-7-7-7-7---------------------------|


-|------------------------------------------------------------------------|
-|------------------------------------------------------------------------|
-|------------------------------------------------------------------------|
-|-4-4-4-4-4-4-4-4-4-4-4--7-7-7-7-7-7-7-7-7-7-7---------------------------|
-|-4-4-4-4-4-4-4-4-4-4-4--7-7-7-7-7-7-7-7-7-7-7---------------------------|
-|-4-4-4-4-4-4-4-4-4-4-4--7-7-7-7-7-7-7-7-7-7-7---------------------------|



-|------------------------------------------------------------------------|
-|------------------------------------------------------------------------|
-|------------------------------------------------------------------------|
-|-4---------7---------9----------11-----------------------11-------------|
-|-4---------7---------9----------11-----------------------11-------------|
-|-4---------7---------9----------11-----------------------11-------------|








Se aceptan Correcciones y comentarios.
                                                                                        
Doppelganger
shadowndraken@hotmail.com
Tap to rate this tab
 
# A B C D E F G H I J K L M N O P Q R S T U V W X Y Z