Song name
# A B C D E F G H I J K L M N O P Q R S T U V W X Y Z

Yolk - Urticaria tab

http://www.myspace.com/yolkonline

                                  Urticaria                                     


                                                                            Yolk
Track 1



     Q    Q    Q    Q       Q    H.              W                 
E||----------------------|--------------------|-------------------|
B||----------------------|--------------------|-------------------|
G||--9----9----9----9----|--9-----------------|-------------------|
D||--8----8----8----8----|--8-----------------|-------------------|
A||--7----7----7----7----|--7-----------------|-------------------|
E||----------------------|--------------------|-------------------|


  Q    Q    Q    Q       Q    H.              W                   Q    Q     
----------------------|--------------------|-------------------|------------|
----------------------|--------------------|-------------------|--7----7----|
--9----9----9----9----|--9-----------------|-------------------|--7----7----|
--8----8----8----8----|--8-----------------|-------------------|--6----6----|
--7----7----7----7----|--7-----------------|-------------------|--7----7----|
----------------------|--------------------|-------------------|------------|


  Q.     E  Q    Q.     E  Q    Q    Q.     E  Q    Q    Q     
--------------------------------------------------------------|
--7------7-------7------7-------7----7------7-------7----7----|
--7------7-------7------7-------7----7------7-------7----7----|
--6------6-------6------6-------6----6------6-------6----6----|
--7------7-------x------x-------7----7------7-------7----7----|
-----------------7------7-------------------------------------|


  Q.     E  Q    Q.     E  Q    Q    Q.     E  Q     Q     Q     
----------------------------------------------------10----10----|
--7------7-------7------7-------7----7------7-------10----10----|
--7------7-------7------7-------7----7------7-------10----10----|
--6------6-------6------6-------6----6------6--------9-----9----|
--7------7-------x------x-------7----7------7-------10----10----|
-----------------7------7---------------------------------------|


   Q.      E  Q     Q.      E  Q     Q     Q.      E  Q    Q    Q     
--10------10-------10------10-------10----10------10-----------------|
--10------10-------10------10-------10----10------10-------7----7----|
--10------10-------10------10-------10----10------10-------7----7----|
---9-------9--------9-------9--------9-----9-------9-------6----6----|
--10------10--------x-------x-------10----10------10-------7----7----|
-------------------10------10----------------------------------------|


  Q.     E  Q    Q.     E  Q    Q    Q.     E  Q    Q    Q     
--------------------------------------------------------------|
--7------7-------7------7-------7----7------7-------7----7----|
--7------7-------7------7-------7----7------7-------7----7----|
--6------6-------6------6-------6----6------6-------6----6----|
--7------7-------x------x-------7----7------7-------7----7----|
-----------------7------7-------------------------------------|


  Q.     E  Q    Q.     E  Q    Q    Q.     E  Q     Q     Q     
----------------------------------------------------10----10----|
--7------7-------7------7-------7----7------7-------10----10----|
--7------7-------7------7-------7----7------7-------10----10----|
--6------6-------6------6-------6----6------6--------9-----9----|
--7------7-------x------x-------7----7------7-------10----10----|
-----------------7------7---------------------------------------|


   Q.      E  Q     Q.      E  Q     Q     Q.      E  Q    Q    Q     
--10------10-------10------10-------10----10------10-----------------|
--10------10-------10------10-------10----10------10-------7----7----|
--10------10-------10------10-------10----10------10-------7----7----|
---9-------9--------9-------9--------9-----9-------9-------6----6----|
--10------10--------x-------x-------10----10------10-------7----7----|
-------------------10------10----------------------------------------|


  Q.     E  Q    Q.     E  Q    Q    Q.     E  Q    Q    Q     
--------------------------------------------------------------|
--7------7-------7------7-------7----7------7-------7----7----|
--7------7-------7------7-------7----7------7-------7----7----|
--6------6-------6------6-------6----6------6-------6----6----|
--7------7-------x------x-------7----7------7-------7----7----|
-----------------7------7-------------------------------------|


  Q.     E  Q    Q.     E  Q    Q    Q.     E  Q    Q    Q     
--------------------------------------------------------------|
--7------7-------7------7-------7----7------7-----------------|
--7------7-------7------7-------7----7------7-------9----9----|
--6------6-------6------6-------6----6------6-------8----8----|
--7------7-------x------x-------7----7------7-------7----7----|
-----------------7------7-------------------------------------|


     PM   PM   PM    PM   PM   PM    PM    PM   PM   PM            
  E  Q    Q    E  E  Q    Q    E  E  E  E  Q    Q    E  Q    Q     
------------------------------------------------------------------|
------------------------------------------------------------------|
--9---------------9---------------9-----9---------------9----9----|
--8---------------8---------------8-----8---------------8----8----|
--7---------------7---------------7-----7---------------7----7----|
-----0----0----0-----0----0----0-----0-----0----0----0------------|


     PM   PM   PM    PM   PM   PM    PM    PM   PM   PM            
  E  Q    Q    E  E  Q    Q    E  E  E  E  Q    Q    E  Q    Q     
------------------------------------------------------------------|
------------------------------------------------------------------|
--9---------------9---------------9-----9---------------9----9----|
--8---------------8---------------8-----8---------------8----8----|
--7---------------7---------------7-----7---------------7----7----|
-----0----0----0-----0----0----0-----0-----0----0----0------------|


     PM   PM   PM    PM   PM   PM    PM    PM   PM   PM            
  E  Q    Q    E  E  Q    Q    E  E  E  E  Q    Q    E  Q    Q     
------------------------------------------------------------------|
------------------------------------------------------------------|
--9---------------9---------------9-----9---------------9----9----|
--8---------------8---------------8-----8---------------8----8----|
--7---------------7---------------7-----7---------------7----7----|
-----0----0----0-----0----0----0-----0-----0----0----0------------|


  Q    H        Q    H        Q    Q    W                     H.            
---------------------------------------------------------||----------------|
---------------------------------------------------------||----------------|
--9-------------9-------------9----9---------------------||*---------------|
--8-------------8-------------8----8---------------------||*--9------------|
--7-------------7-------------7----7---------------------||---x------------|
---------------------------------------------------------||---7------------|


  H.               H.               Q     Q     Q    Q     3x  H.            
---------------|----------------|--------------------------||---------------|
---------------|----------------|--------------------------||---------------|
---------------|--12------------|---L----12----11----9----*||---------------|
--9------------|---x------------|---------x-----x----x----*||--9------------|
--x------------|--10------------|---L----10-----9----7-----||--x------------|
--7------------|----------------|--------------------------||--7------------|


  H.               H.               Q    Q    Q     
---------------|----------------|------------------|
---------------|----------------|------------------|
---------------|--12------------|---L----7----8----|
--9------------|---x------------|--------x----x----|
--x------------|--10------------|---L----5----6----|
--7------------|----------------|------------------|


  W                W                W                 
-----------------------------------------------------|
-----------------------------------------------------|
--9----------------L----------------L----------------|
--x--------------------------------------------------|
--7----------------L----------------L----------------|
-----------------------------------------------------|


  W                W                W                 
-----------------------------------------------------|
-----------------------------------------------------|
-----------------------------------------------------|
-----------------------------------------------------|
-----------------------------------------------------|
-----------------------------------------------------|


  W                W                W                 
-----------------------------------------------------|
-----------------------------------------------------|
-----------------------------------------------------|
-----------------------------------------------------|
-----------------------------------------------------|
-----------------------------------------------------|


  W                W                W                 
-----------------------------------------------------|
-----------------------------------------------------|
-----------------------------------------------------|
-----------------------------------------------------|
-----------------------------------------------------|
-----------------------------------------------------|


  Q.     E  Q    Q.     E  Q    Q    Q.     E  Q    Q    Q     
--------------------------------------------------------------|
--7------7-------7------7-------7----7------7-------7----7----|
--7------7-------7------7-------7----7------7-------7----7----|
--6------6-------6------6-------6----6------6-------6----6----|
--7------7-------x------x-------7----7------7-------7----7----|
-----------------7------7-------------------------------------|


  Q.     E  Q    Q.     E  Q    Q    Q.     E  Q     Q     Q     
----------------------------------------------------10----10----|
--7------7-------7------7-------7----7------7-------10----10----|
--7------7-------7------7-------7----7------7-------10----10----|
--6------6-------6------6-------6----6------6--------9-----9----|
--7------7-------x------x-------7----7------7-------10----10----|
-----------------7------7---------------------------------------|


   Q.      E  Q     Q.      E  Q     Q     Q.      E  Q    Q    Q     
--10------10-------10------10-------10----10------10-----------------|
--10------10-------10------10-------10----10------10-------7----7----|
--10------10-------10------10-------10----10------10-------7----7----|
---9-------9--------9-------9--------9-----9-------9-------6----6----|
--10------10--------x-------x-------10----10------10-------7----7----|
-------------------10------10----------------------------------------|


  Q.     E  Q    Q.     E  Q    Q    Q.     E  Q    Q    Q     
--------------------------------------------------------------|
--7------7-------7------7-------7----7------7-------7----7----|
--7------7-------7------7-------7----7------7-------7----7----|
--6------6-------6------6-------6----6------6-------6----6----|
--7------7-------x------x-------7----7------7-------7----7----|
-----------------7------7-------------------------------------|


  Q.     E  Q    Q.     E  Q    Q    Q.     E  Q     Q     Q     
----------------------------------------------------10----10----|
--7------7-------7------7-------7----7------7-------10----10----|
--7------7-------7------7-------7----7------7-------10----10----|
--6------6-------6------6-------6----6------6--------9-----9----|
--7------7-------x------x-------7----7------7-------10----10----|
-----------------7------7---------------------------------------|


   Q.      E  Q     Q.      E  Q     Q     Q.      E  Q    Q    Q     
--10------10-------10------10-------10----10------10-----------------|
--10------10-------10------10-------10----10------10-------7----7----|
--10------10-------10------10-------10----10------10-------7----7----|
---9-------9--------9-------9--------9-----9-------9-------6----6----|
--10------10--------x-------x-------10----10------10-------7----7----|
-------------------10------10----------------------------------------|


  Q.     E  Q    Q.     E  Q    Q    Q.     E  Q    Q    Q     
--------------------------------------------------------------|
--7------7-------7------7-------7----7------7-------7----7----|
--7------7-------7------7-------7----7------7-------7----7----|
--6------6-------6------6-------6----6------6-------6----6----|
--7------7-------x------x-------7----7------7-------7----7----|
-----------------7------7-------------------------------------|


  Q.     E  Q    Q.     E  Q    Q    Q.     E  Q    Q    Q     
--------------------------------------------------------------|
--7------7-------7------7-------7----7------7-----------------|
--7------7-------7------7-------7----7------7-------9----9----|
--6------6-------6------6-------6----6------6-------8----8----|
--7------7-------x------x-------7----7------7-------7----7----|
-----------------7------7-------------------------------------|


     PM   PM   PM    PM   PM   PM    PM    PM   PM   PM            
  E  Q    Q    E  E  Q    Q    E  E  E  E  Q    Q    E  Q    Q     
------------------------------------------------------------------|
------------------------------------------------------------------|
--9---------------9---------------9-----9---------------9----9----|
--8---------------8---------------8-----8---------------8----8----|
--7---------------7---------------7-----7---------------7----7----|
-----0----0----0-----0----0----0-----0-----0----0----0------------|


     PM   PM   PM    PM   PM   PM    PM    PM   PM   PM            
  E  Q    Q    E  E  Q    Q    E  E  E  E  Q    Q    E  Q    Q     
------------------------------------------------------------------|
------------------------------------------------------------------|
--9---------------9---------------9-----9---------------9----9----|
--8---------------8---------------8-----8---------------8----8----|
--7---------------7---------------7-----7---------------7----7----|
-----0----0----0-----0----0----0-----0-----0----0----0------------|


     PM   PM   PM    PM   PM   PM    PM    PM   PM   PM            
  E  Q    Q    E  E  Q    Q    E  E  E  E  Q    Q    E  Q    Q     
------------------------------------------------------------------|
------------------------------------------------------------------|
--9---------------9---------------9-----9---------------9----9----|
--8---------------8---------------8-----8---------------8----8----|
--7---------------7---------------7-----7---------------7----7----|
-----0----0----0-----0----0----0-----0-----0----0----0------------|


  Q    H        Q    H        Q    Q    W                     H.            
---------------------------------------------------------||----------------|
---------------------------------------------------------||----------------|
--9-------------9-------------9----9---------------------||*---------------|
--8-------------8-------------8----8---------------------||*--9------------|
--7-------------7-------------7----7---------------------||---x------------|
---------------------------------------------------------||---7------------|


  H.               H.               Q     Q     Q    Q     3x   H.            
---------------|----------------|--------------------------||----------------|
---------------|----------------|--------------------------||----------------|
---------------|--12------------|---L----12----11----9----*||*---------------|
--9------------|---x------------|---------x-----x----x----*||*--9------------|
--x------------|--10------------|---L----10-----9----7-----||---x------------|
--7------------|----------------|--------------------------||---7------------|


  H.               H.               W                     H.            
---------------|----------------|--------------------||----------------|
---------------|----------------|--------------------||----------------|
---------------|--12------------|---L----------------||*---------------|
--9------------|---x------------|--------------------||*--5------------|
--x------------|--10------------|---L----------------||---x------------|
--7------------|----------------|--------------------||---3------------|


  H.              H.               Q    Q    Q       H.            
---------------|---------------|------------------|---------------|
---------------|---------------|------------------|---------------|
---------------|---------------|------------------|---------------|
--7------------|--9------------|--10----9----7----|--5------------|
--x------------|--x------------|---x----x----x----|--x------------|
--5------------|--7------------|---8----7----5----|--3------------|


  H.              H.              H.              H.              H.            
---------------|---------------|---------------|---------------|---------------|
---------------|---------------|---------------|---------------|---------------|
---------------|---------------|---------------|---------------|---------------|
--5------------|--5------------|--5------------|--5------------|--7------------|
--x------------|--x------------|--x------------|--x------------|--x------------|
--3------------|--3------------|--3------------|--3------------|--5------------|


   H.               Q    Q    Q       H.              H.            
----------------|------------------|---------------|---------------|
----------------|------------------|---------------|---------------|
----------------|------------------|---------------|---------------|
--10------------|--10----9----7----|--5------------|--5------------|
---x------------|---x----x----x----|--x------------|--x------------|
---8------------|---8----7----5----|--3------------|--3------------|


  H.              H.                Q    Q    Q    Q       Q    H.            
---------------|----------------||----------------------|--------------------|
---------------|----------------||----------------------|--------------------|
---------------|---------------*||--9----9----9----9----|--9-----------------|
--5------------|--5------------*||--8----8----8----8----|--8-----------------|
--x------------|--x-------------||--7----7----7----7----|--7-----------------|
--3------------|--3-------------||----------------------|--------------------|


  W                   Q    Q    Q    Q       Q    H.            
-------------------|----------------------|--------------------|
-------------------|----------------------|--------------------|
-------------------|--9----9----9----9----|--9-----------------|
-------------------|--8----8----8----8----|--8-----------------|
-------------------|--7----7----7----7----|--7-----------------|
-------------------|----------------------|--------------------|


  W                   Q    Q     
-------------------|------------|
-------------------|------------|
-------------------|--9----9----|
-------------------|--8----8----|
-------------------|--7----7----|
-------------------|------------|


     PM   PM   PM    PM   PM   PM    PM    PM   PM   PM            
  E  Q    Q    E  E  Q    Q    E  E  E  E  Q    Q    E  Q    Q     
------------------------------------------------------------------|
------------------------------------------------------------------|
--9---------------9---------------9-----9---------------9----9----|
--8---------------8---------------8-----8---------------8----8----|
--7---------------7---------------7-----7---------------7----7----|
-----0----0----0-----0----0----0-----0-----0----0----0------------|


     PM   PM   PM    PM   PM   PM    PM    PM   PM   PM            
  E  Q    Q    E  E  Q    Q    E  E  E  E  Q    Q    E  Q    Q     
------------------------------------------------------------------|
------------------------------------------------------------------|
--9---------------9---------------9-----9---------------9----9----|
--8---------------8---------------8-----8---------------8----8----|
--7---------------7---------------7-----7---------------7----7----|
-----0----0----0-----0----0----0-----0-----0----0----0------------|


     PM   PM   PM    PM   PM   PM    PM    PM   PM   PM            
  E  Q    Q    E  E  Q    Q    E  E  E  E  Q    Q    E  Q    Q     
------------------------------------------------------------------|
------------------------------------------------------------------|
--9---------------9---------------9-----9---------------9----9----|
--8---------------8---------------8-----8---------------8----8----|
--7---------------7---------------7-----7---------------7----7----|
-----0----0----0-----0----0----0-----0-----0----0----0------------|


  Q    H        Q    H        Q    Q    H        Q    Q     
-----------------------------------------------------------|
-----------------------------------------------------------|
--9-------------9-------------9----9-------------9----9----|
--8-------------8-------------8----8-------------8----8----|
--7-------------7-------------7----7-------------7----7----|
-----------------------------------------------------------|


     PM   PM   PM    PM   PM   PM    PM    PM   PM   PM            
  E  Q    Q    E  E  Q    Q    E  E  E  E  Q    Q    E  Q    Q     
------------------------------------------------------------------|
------------------------------------------------------------------|
--9---------------9---------------9-----9---------------9----9----|
--8---------------8---------------8-----8---------------8----8----|
--7---------------7---------------7-----7---------------7----7----|
-----0----0----0-----0----0----0-----0-----0----0----0------------|


     PM   PM   PM    PM   PM   PM    PM    PM   PM   PM            
  E  Q    Q    E  E  Q    Q    E  E  E  E  Q    Q    E  Q    Q     
------------------------------------------------------------------|
------------------------------------------------------------------|
--9---------------9---------------9-----9---------------9----9----|
--8---------------8---------------8-----8---------------8----8----|
--7---------------7---------------7-----7---------------7----7----|
-----0----0----0-----0----0----0-----0-----0----0----0------------|


     PM   PM   PM    PM   PM   PM    PM    PM   PM   PM            
  E  Q    Q    E  E  Q    Q    E  E  E  E  Q    Q    E  Q    Q     
------------------------------------------------------------------|
------------------------------------------------------------------|
--9---------------9---------------9-----9---------------9----9----|
--8---------------8---------------8-----8---------------8----8----|
--7---------------7---------------7-----7---------------7----7----|
-----0----0----0-----0----0----0-----0-----0----0----0------------|


  Q    H        Q    H        Q    Q    W                  
---------------------------------------------------------||
---------------------------------------------------------||
--9-------------9-------------9----9---------------------||
--8-------------8-------------8----8---------------------||
--7-------------7-------------7----7---------------------||
---------------------------------------------------------||




Duration Legend
---------------
W - whole
H - half
Q - quarter
E - 8th
S - 16th
T - 32nd
X - 64th
. - note dotted
|-n-|  - n-tuplets


Tablature Legend
----------------
L - tied note
x - dead note
g - grace note
(n) - ghost note
> - accentuded note
NH - natural harmonic
AH - artificial harmonic
TH - tapped harmonic
SH - semi harmonic
PH - pitch harmonic
h - hammer on
p - pull off
b - bend
br - bendRelease
pb - preBend
pbr - preBendRelease
brb - bendReleaseBend
\n/ - tremolo bar dip
\n - tremolo bar dive
-/n - tremolo bar Release up
/n\ - tremolo bar inverted dip
/n - tremolo bar return
-\n - tremolo bar Release down
S - shift slide
s - legato slide
/ -  slide into from below or out of upwards
\ -  slide into from above or out of downwards
~ - vibrato
W - wide vibrato
tr - trill
TP - tremolo picking
T - tapping
S - slap
P - pop
< - fade in
^ - brush up
v - brush down

Tap to rate this tab
# A B C D E F G H I J K L M N O P Q R S T U V W X Y Z