Song name
# A B C D E F G H I J K L M N O P Q R S T U V W X Y Z

Yonder Mountain String Band - Roughneck Blues tab

Tuning:standard
intro-
e|---------------------------------------------------------------------------------|
B|------------------------------------------------------------2--------------------|
G|------------------------------------------------------------2--------------------|
D|------------------------------------------------------------2--------------------|
A|-------   0--2h4--2h4--2----------0--2h4-2h4--0---------0------------------------|
E|--0--2-4----------------4---0h2r0---------------0--2--4-----A--------------------|

Melody

e|------------------------------------------------------------------------------------|
B|--2h3-3-0----(x2)--0h2-2-0--(x2)--2h3-3-0--(x2)--0h2-2-0----------------2-----------|
G|----------2---------------2--------------2--------------1--------------2------------|
D|----------------------------------------------------------2------------2------------|
A|--------------------------------------------------------------------0---------------|
E|-------------------------------------------------------------0-2-4------------------|


(A)
Ten days out, and four days in
(D)
And then I'm out ten days again
(A)
Four days ain't enough to lose
(E)
These low down roughneck
(A)
blues

I'd like to quit, but I don't know how
I guess my blood is fluid oil now
I guess I'm never gonna lose
These low down roughneck blues

(D)
On at midnight, off at noon
(A)
My four days off can't come too soon
(D)
Make good money, spend it all
(A)
When I go on a
(E)
ball
Tap to rate this tab
# A B C D E F G H I J K L M N O P Q R S T U V W X Y Z