Song name
# A B C D E F G H I J K L M N O P Q R S T U V W X Y Z

Yonderboi - People Always Talk About The Weather tab

Yonderboi - People always talk about the weather

intro: (which is repeated through the whole song)

E---|-------------------------|-------------------------|
B---|-------------------------|-------------------------|
G---|-------------------------|-------------------------|
D---|------5------------------|------5------------------|
A-0-|-0-3-5-----3/5-3-2-0---0-|-0-3-5-----3/5-3-2-0---0-|
E---|--------0------------3---|--------0------------3---|
(listen for the rhythm and speed)

under the song there is played:

E-------10-|
B-----8----|
G-9--------|
D---7------|
A----------|
E----------|

thats all.

just repeat.

jens_kat@hotmail.com
Tap to rate this tab
 
# A B C D E F G H I J K L M N O P Q R S T U V W X Y Z