Song name
# A B C D E F G H I J K L M N O P Q R S T U V W X Y Z

Yoni Gossat - I Wish You Were Here With Me tab

                     song written by: yoni and yair

                            intro
1.-----------------------------------------------------------------------------|
2.-------------1------------1--------------------------------------------------|
3.----------------0------------0-----------------------------------------------|
4.-------0h2-----------------------2-----x3------------------------------------|
5.--3-----------------3--------------------------------------------------------|
6.-----------------------------------------------------------------------------|

                           main
1.--------0----------------0----------------0----------------------------------------|
2.----------1----------------1----------------1--------------------------------------|
3.------------0-----------------0----------------0-----------------------------------|
4.--------------------------------------3-------------3s5s3,0,0--x4------------------|
5.---3-------------2-----------------------------------------------------------------|
6.-----------------------------------------------------------------------------------|
Tap to rate this tab
# A B C D E F G H I J K L M N O P Q R S T U V W X Y Z