Song name
# A B C D E F G H I J K L M N O P Q R S T U V W X Y Z

Yonlu - Waterfall tab

     D                          D4                         Gm/D                       D
                                                                                                
||5--------5--------5-----|3--------3--------3-----|--3--------3--------3-----|2--------2--------2---|
||-----3--------3------3--|-----3--------3------3--|-------3--------3------3--|-----3--------3------3|
||---2---2----2---2-------|---2---2----2---2-------|-----3---3----3---3-------|---2---2----2---2-----|
||0--------0--------0-----|0--------0--------0-----|--0--------0--------0----|0--------0--------0----|
||------------------------|------------------------|--------------------------|----------------------|
||------------------------|------------------------|--------------------------|----------------------|

   F#m/D                      Am/D                       Gm/D                       D

|2--------2--------2-----|0--------0--------0-----|3--------3--------3----|2--------2--------2-----||
|-----2--------2------2--|-----1--------1------1--|-----3--------3------3--|-----3--------3------3-||
|---2---2----2---2-------|---2---2----2---2-------|---0---0----0---0-------|---2---2----2---2------||
|0--------0--------0-----|0--------0--------0-----|0--------0--------0----|0--------0--------0-----||
|------------------------|------------------------|------------------------|-----------------------||
|------------------------|------------------------|------------------------|-----------------------||

    D                          D4                         Gm/D                       D

||5--------5--------5----|-3--------3--------3----|-3--------3--------3----|--2--------2--------2--|
||-----3--------3------3-|------3--------3------3-|------3--------3------3-|-------3--------3-----3|
||---2---2----2---2------|----2---2----2---2------|----3---3----3---3------|-----2---2----2---2----|
||0--------0--------0----|-0--------0--------0----|-0--------0--------0----|--0--------0--------0--|
||-----------------------|------------------------|------------------------|-----------------------|
||-----------------------|------------------------|------------------------|-----------------------|

   F#m/D                      Am/D                       Gm/D                       D

2--------2--------2----|-0--------0--------0-----|--3--------3--------3-----|--2--------2--------2---|
-----2--------2------2-|------1--------1------1--|-------3--------3------3--|-------3--------3------3|
---2---2----2---2------|----2---2----2---2-------|-----0---0----0---0-------|-----2---2----2---2-----|
0--------0--------0----|-0--------0--------0-----|--0--------0--------0-----|--0--------0--------0---|
-----------------------|-------------------------|--------------------------|------------------------|
-----------------------|-------------------------|--------------------------|------------------------|

   Em7                        D                          Em7                        D

0--------0--------0-----|-2--------2--------2-----|-0--------0--------0----|-2--------2--------2-----|
-----3--------3------3--|------3--------3------3--|------3--------3------3-|------3--------3------3--|
---0---0----0---0-------|----2---2----2---2-------|----0---0----0---0------|----2---2----2---2-------|
2-----------------------|-0-----------------------|-2----------------------|-0-----------------------|
------------------------|-------------------------|------------------------|-------------------------|
------------------------|-------------------------|------------------------|-------------------------|

   D

|--2--------2--------2------||
|-------3--------3------3---||
|-----2---2----2---2--------||
|--0------------------------||
|---------------------------||
|---------------------------||

http://www.downmusic.net
Tap to rate this tab
 
# A B C D E F G H I J K L M N O P Q R S T U V W X Y Z