Song name
# A B C D E F G H I J K L M N O P Q R S T U V W X Y Z

Yoshida Brothers - Tabidachi tab

-------------------------------------------------------------------------------
            Tabidachi (Starting on a Journey)   - Yoshida Brothers
-------------------------------------------------------------------------------
Tabbed by: Martin Messner
Email: BigBonsai@hotmail.de

Tuning: Standard

//////////////////////////////////////////////
//                                          //
//  RATING THIS TAB TAKES ABOUT 5 SECONDS   //
//  AND HELPS ME TO IMPROVE MY WORK         //
//                                          //
//////////////////////////////////////////////


Shemisen:
e|----------------------6------------------------------6---------------------|
B|----6-8---6---------6----6-8p6---6---6-8---6-------6----6-8p6---6----------|
G|--8-----8-----5---8------------8---8-----8---5---8------------8----8-----5-|
D|----------------------------------------------------------------------8----|
A|---------------------------------------------------------------------------|
E|---------------------------------------------------------------------------|



e|-----------------------------------------------------------------------|
B|----------6-8-------------6-8-6-------------------------6---6----------|
G|--8---5-8-----------5-5-8-------8-5---------5---8-----5---8---8-5------|
D|----8---------5-8-8-----------------8---5-8-------8--------------------|
A|-----------------------------------------------------------------------|
E|-----------------------------------------------------------------------|

Tap to rate this tab
# A B C D E F G H I J K L M N O P Q R S T U V W X Y Z