Guitaretab - guitar tabs
Song name
# A B C D E F G H I J K L M N O P Q R S T U V W X Y Z

You Am I - Berlin Chair Acoustic tab

-------------------------------------------------------------------------------
			     BERLIN CHAIR (Acoustic)  You Am I
-------------------------------------------------------------------------------
Tabbed by: Tyler J
Email: full_metal_orange AT hotmail DOT com

Tuning: Drop G

     Dsus2    Gsus2	 Esus2
    -x-        -x--        -x----|
b    -x-        -10-        -x---|
g    -9-        -7--        -11--|
d    -7-        -0--        -9---|
g    -7-        -0--        -9---|
e    -x-        -x--        -x---|

Rhy. Fig. 1
e--------------------------------------------------------------------|
b--0-------------0--------------2--2-2--2-2-2-3--3-3--3-3-3----------|
g--0---6---6-4---0---6---6-4----0--0-0--0-0-0-0--0-0--0-0-0----------|
d--0-0-0-0-0-0-0-0-0-0-0-0-0-0--4--4-4--4-4-4-4--4-4--4-4-4----------|
g--0-0-0-0-0-0-0-0-0-0-0-0-0-0--4--4-4--4-4-4-4--4-4--4-4-4----------|
e--------------------------------------------------------------------|

(with rhy. fig 1  x4)
If half of what I'm saying think what I'm saying is true
Well you rub my head and made it all shiny and new
And you drag my coattails drag my coattails down
And I'll be the only cold arse and king around

CHORUS
	    Dsus2		 Gsus2		    Esus2 - Gsus2
If you'll wait I'll give all my angst to you
	 Dsus2	  Gsus2				   Esus2 - Gsus2
Take a chance to ignore what you're going through
	  Dsus2   Gsus2			   Esus2	Gsus2
My cold hand is there for you to take
		 Dsus2	     Gsus2			Esus2
I'm a berlin chair won't you lean on me 'till I break
[ Tab from: http://www.guitaretab.com/y/you-am-i/106964.html ]
e------------------------------------------|
b---10-10-10---------10-10-10--------------|
g---7--7--7---7-7-7--7--7--7---7-7-7-------|
d---0--0--0---0-0-0--0--0--0---0-0-0-------|
g---0--0--0---0-0-0--0--0--0---0-0-0-------|
e------------------------------------------|

(with rhy. fig. 1  x4)
I ignore each golden dragged out kiss you can give
I'm the blankest face you'll ever had to forgive
Well you see my fallings see my failings through
I'm the rerun that you'll always force yourself to sit through

REPEAT CHORUS

Are you to late, to late, to late, to late
e---------------------------------------------------------------------|
b-10-10-10-------10-10-10--------10-10-10-------10-10-10-10-10-10-----|
g-7--7--7--7-7-7-7--7--7---7-7-7-7--7--7--7-7-7-7--7--7--7--7--7--0---|
d-0--0--0--0-0-0-0--0--0---0-0-0-0--0--0--0-0-0-0--0--0--0--0--0--0---|
g-0--0--0--0-0-0-0--0--0---0-0-0-0--0--0--0-0-0-0--0--0--0--0--0--0---|
e---------------------------------------------------------------------|

e---------------------------------------------------------------------|
b---------------------------------------------------------------------|
g-9--9--9--11-x-9-9-9--9-11-11-0--9--9--9--11-x-9-9-9--9-11-11-0------|  x4
d-7--7--7--9--x-0-0-0--0-0--0--0--9--9--9--9--x-0-0-0--0-0--0--0------|
g-7--7--7--9--x-0-0-0--0-0--0--0--9--9--9--9--x-0-0-0--0-0--0--0------|
e---------------------------------------------------------------------|

e--------------------------------------------------------------------|
b-10-10-10--------9/10-10-10--------9/10-10-10--------10-10-10-------|
g-7--7--7---7-7-7-7----7--7---7-7-7-7----7--7---7-7-7-7--7--7--------|
d-0--0--0---0-0-0-0----0--0---0-0-0-0----0--0---0-0-0-0--0--0--------|
g-0--0--0---0-0-0-0----0--0---0-0-0-0----0--0---0-0-0-0--0--0--------|
e--------------------------------------------------------------------|

e---------------------|
b-----10----10----x---|
g-----7-----7-----7---|
d--0--0--0--0--0--7---|
g--0--0--0--0--0--7---|
e---------------------|
Related for Berlin Chair Acoustic tab