Guitaretab - guitar tabs
Song name
# A B C D E F G H I J K L M N O P Q R S T U V W X Y Z

You Am I - Hi Fi Way tab

-------------------------------------------------------------------------------
			     HI FI WAY (Album)  You Am I
-------------------------------------------------------------------------------
Tabbed by: Tyler J (actually tabbed by tabbers mentioned)
Email: full_metal_orange AT hotmail DOT com

HI FI WAY
by Tim Rogers/You Am I

  1.  Aint Gone And Open
  2.  Minor Byrd
  3.  She Digs Her
  4.  Cathy's Clown
  5.  Jewels And Bullets
  6.  Purple Sneakers
  7.  Pizza Guy
  8.  Applecross Wing Commander
  9.  Handwasher
  10. Stray
  11. Ken (the Mother Nature's Son)
  12. Punkarella
  13. Gray
  14. How Much Is Enough?

%%%%%%%%%%%%%%%%%%%%%%%%%%%%%%%%%%%%%%%%%%%%%%%%%%%%%%%%%%%%%%%%%%%%%%%%%%%%%%%%
AINT GONE AND OPEN

I saw the previous version, and to be brutally honest, it was totally wrong.
And I couldn't just sit back and let the yoof of Australia play a dud version
of this song.

dropped-d tuning

intro
    F#
E|------------------------------------------------------------------------------|
B|------------------------------------------------------------------------------|
G|-------------------------------4----------------------------------------------|
D|--4--4-4--4--4----------------------------------------------------------------|
A|--4--4-4--6--6--------------3-------------------------------------------------|
D|--4--4-4--4--4-----------4----------------------------------------------------|

main riff/verses
   F#               D#                B
E|---------------------------------|-------------0-----0-----|------------------|
B|---------------------------------|---------------0-----0---|------------------|
G|---------------------------------|--4--4--4-4------4-----4-|-play a few times-|
D|-4--4-4--4--4-----1----1---1--1--|--4--4--4-4--------------|-----then---------|
A|-4--4-4--6--4-----1----1---3--1--|--2--2--2-2--------------|------------------|
D|-4--4-4--4--4-----1----1---1--1--|--x----------------------|------------------|

   G#            A#    B
E|-------------------|----------------------------------------------------------|
B|-------------------|----------------------------------------------------------|
G|-------------------|----------------------------------------------------------|
D|-6--------6-6--8--8|/9--------------------------------------------------------|
A|-6--------6-6--8--8|/9--------------------------------------------------------|
D|-6--------6-6--8--8|/9--------------------------------------------------------|

chorus
    F#    D      B         Bm7
E|-----------|----------|--2----------------------------------------------------|
B|-----------|---0------|--3----------------------------------------------------|
G|.----------|---4-----.|--2----------------------------------------------------|
D|.-4-----0--|---4-----.|--4----------------------------------------------------|
A|--4-----0--|---2------|--2----------------------------------------------------|
D|--4-----0--|----------|-------------------------------------------------------|

mellotron end bit

E|------7----------------|------------------------------------------------------|
B|-7---------------------|------------------------------------------------------|
G|---------7----9--8-----|------------------------------------------------------|
D|---------------------9-|-0-----2--1-------------------------------------------|
A|-----------------------|----------------2-------------------------------------|
D|-----------------------|------------------------------------------------------|

That's it. I feel so much better now.

Matt Estela ( mestela@progsoc.uts.edu.au )

%%%%%%%%%%%%%%%%%%%%%%%%%%%%%%%%%%%%%%%%%%%%%%%%%%%%%%%%%%%%%%%%%%%%%%%%%%%%%%%%
MINOR BYRD by YOU AM I
Tabbed by Dan (dan@cheail.com)

Tuning: Dropped-G (EGDGBE)

Intro:
-------------------------------------------------|
-------------------------------------------------|
--9-9-9-9--8-8-8-8--7-7-7-7--9-------------------|
--9-9-9-9--8-8-8-8--7-7-7-7--9-------------------|
--9-9-9-9--8-8-8-8--7-7-7-7--9-------------------|
-------------------------------------------------|
                               (let ring)

(DRUMS ENTER)

BREAK:
-------------------------------------------------|
-------------------------------------------------|
--4-4-4-4--4-4-4-4--4-4-4-4--4-4-4-4-------------|
--6-6-6-6--5-5-5-5--4-4-4-4--4-4-4-4-------------|
--4-4-4-4--4-4-4-4--4-4-4-4--4-4-4-4-------------|
-----------------------------4h6-4h6-------------|

 x3 then:

-------------------------|
-------------------------|
-0-0---1-1---2-2---3-3---|
-0-0---1-1---2-2---3-3---|
-0-0---1-1---2-2---3-3---|
-------------------------|


VERSE:
-------------------------------------------------|
-------------------------------------------------|
--4-4-4-4--4-4-4-4--4-4-4-4--4-4-4-4-------------|
--6-6-6-6--5-5-5-5--4-4-4-4--4-4-4-4-------------|
--4-4-4-4--4-4-4-4--4-4-4-4--4-4-4-4-------------|
-----------------------------4h6-4h6-------------|

x4

At my nan's I wasn't thinking
Over boiled beans and chicken
Something cool fell in my juice cup
So that I could lie and make stuff up
Is that...

CHORUS:
-----------------------------------------------|
---------8-7-7------------------------5-4------|
---7-7-7-7-7-7-----7---6---5---4----4-4-4------|
---7-7-7-7-7-7-----7---6---5---4----4-4-4------|
---7-7-7-7-7-7-----7---6---5---4----4-4-4------|
-----------------------------------------------|
  why?         My future's so bright...


--------------------------------------------------------|
---------------------7-8-7------------------------------|
----4---5---6---7----7-7-7--7-7-7-7-7-7-7-7-4-4-4-4-----|
----4---5---6---7----7-7-7--7-7-7-7-7-7-7-7-4-4-4-4-----|
----4---5---6---7----7-7-7--7-7-7-7-7-7-7-7-4-4-4-4-----|
--------------------------------------------------------|
  strap in and go... oh, oh, back yard rock show


-------------------------------------------|
-------------------------------------------|
---0-0-0-0-0-0-0-0--2-2-2-2-2-2-2-2-2-2-2--|
---0-0-0-0-0-0-0-0--2-2-2-2-2-2-2-2-2-2-2--|
---0-0-0-0-0-0-0-0--2-2-2-2-2-2-2-2-2-2-2--|
-------------------------------------------|
   aaaaaaaaaah...... aaaaaaaaaaaah

BREAK

VERSE 2: (as before)
When all city folk got southern
paint my face up with my brother
Uncle choked and started shaking
over whiskey, eggs and bacon


CHORUS (as before):
Is that why
our nights look so bright?
So strap in and go
Backyard rock show.

BREAK with OUTRO:
-----------------------------|
-----------------------------|
-0-0---1-1---2-2---3-3---4-4-|
-0-0---1-1---2-2---3-3---4-4-|
-0-0---1-1---2-2---3-3---4-4-|
-----------------------------|

%%%%%%%%%%%%%%%%%%%%%%%%%%%%%%%%%%%%%%%%%%%%%%%%%%%%%%%%%%%%%%%%%%%%%%%%%%%%%%%%
SHE DIGS HER

Matt Estela (mestela@progsoc.uts.edu.au)
Danny Yau (danny@zip.com.au)

capo 3, tuned to EADGAD

main riff

D|-0-0-0-0-|-0-0-0-0-|--0-0-0-0-|-0-0-0-0-|
A|-0-0-0-0-|-0-0-0-0-|--0-0-0-0-|-0-0-0-0-|
G|-0-0-0-0-|-0-0-0-0-|--0-0-0-0-|-0-0-0-0-|
D|-0-0-0-0-|-2-2-2-0-|--0-0-0-0-|-2-2-2-2-|
A|-2-2-2-0-|-2-2-2-2-|-/4-4-4-2-|-3-3-3-3-|
E|-3-3-3-2-|-0-0-0-3-|-/5-5-5-3-|---------|

chorus
D|-0-|-0-|-0-|-0-|
A|-0-|-0-|-0-|-0-|
G|-0-|-0-|-0-|-0-|
D|-2-|-2-|-2-|-2-|
A|-0-|-3-|-0-|-3-|
E|---|---|---|---|

and the Big Finish

D|-0-|-0-|-0-|-0-|-0-|-0-0-|
A|-0-|-0-|-0-|-0-|-0-|-0-0-|
G|-0-|-3-|-0-|-0-|-0-|-0-0-|
D|-2-|-1-|-0-|-0-|-2-|-0-0-|
A|-3-|-3-|-2-|-3-|-2-|-2/4-|
E|---|---|-3-|-1-|-0-|-3/5-|

%%%%%%%%%%%%%%%%%%%%%%%%%%%%%%%%%%%%%%%%%%%%%%%%%%%%%%%%%%%%%%%%%%%%%%%%%%%%%%%%
CATHY'S CLOWN

Transcribed by David (dfhannah@hotmail.com)
Small help from Danny (danny@zip.com.au)
Even smaller help from David Lane (dlane@ihug.com.au)

dropped d tuning, capo 2nd fret.

INTRO

E------------------------------------|
B-----------7--8--10--------7--8--12-|
G-----------7--7--10--------7--7--12-|
D-0-0-0-0-0-0-0-0-0-0-0-0-0-0-0-0-0--|
A------------------------------------|
D------------------------------------|

VERSE

E--2--0-0--0-0--0-0-0-----|
B--3--3-3--0-0--2-2-3-2---|
G--2--0-0-------2-2-2-2---| repeat
D--0--2-2--2-2--2-2-2-2---|
A-----3-3--2-2--0-0-0-0---|
D----------2-2------------|

CHORUS
(you can let the top notes ring to fill up the sound)]

E-------------------2-2-2-2-2-2-2-2-2-2-2--*--0-0-0-0-0-0-----|
B-------------------3-3-3-3-3-3-3-3-3-3-3--*--0-0-0-2-2-3-2---|
G-------------------2-2-2-2-2-2-2-2-2-2-2--*--0-0-0-2-2-2-2---|
D--3-3-3-3-3-3-3-3--0-0-0-0-0-0-0-0-0-0-0--*--2-2-2-2-2-2-2---|
A--3-3-3-3-3-3-3-3-------------------------*--2-2-2-0-0-0-0---|
D--3-3-3-3-3-3-3-3-------------------------*--2-2-2-----------|

end riff

E--2--0-0--0-0----------|
B--3--3-3--0-0----------|
G--2--0-0---------------| repeat
D--0--2-2--2-2--1-1-1-1-|
A-----3-3--2-2--1-1-1-1-|
D----------2-2--1-1-1-1-|

              EADGBe
 END ON Dmaj7 xx0222

%%%%%%%%%%%%%%%%%%%%%%%%%%%%%%%%%%%%%%%%%%%%%%%%%%%%%%%%%%%%%%%%%%%%%%%%%%%%%%%%
JEWELS AND BULLETS

Transcribed by David Lane

Tuning EACGBE

CAPO 2

CHORDS USED (relative to capo);

Cadd9 A5 A  F5 F
---------0-----0----|
--3------0-----0----|
--0------0-----0----|
--0------0-----0----|
--3---7--7--3--3----|
------5--5--1--1----|

LINK (relative to capo)

-----------|
-----------|
-----------|
-----------|
5--7--5----|
3--5--3----|

VERSE 1

      Cadd9                                                    A
Every word they sling you hits like your folks have never been kind
        Cadd9                                   A
And the jewels on your apron could use some calomine
        Cadd9                                             A    (link)
All the girls and pig faced boys are punching joining the line

CHORUS

F5                         F
  The old shoe that'd been lived in
A5                    A     (link)
  And a towel you got dry in
F5                            F
  And there's a drink you can drown in
F5
So choose a blanket to die in

VERSE 2

        Cadd9                                                     A
Spill a drink on his front and sells the plans for a morning high rise
             Cadd9                                                A    (link)
'Coz there's only so much of string that pay slips can pull and unwind

CHORUS

F5                         F
  The old shoe that'd been lived in
A5                    A      (link)
  And a towel you got dry in
F5                            F
  And there's a drink you can drown in
F5
  So choose a blanket to die in


SOLO (Over verse chords, relative to capo)

(All harmonics)                                           A
---------------------------------------------------------|
---------------------------------------------------------|
---------7-7-7---------7-7-7---------7-7-7---------7-7-7-|
------7--------------7-------------7-------------7-------|
-7-7-----------7-7-7---------7-7-7---------7-7-7---------|
---------------------------------------------------------|

(x2)

(REPEAT CHORUS CHORDS)

Check out the towel you can die in

A (Then bass and drums, pick scrape into;)

OUTRO
------------------------------------------|
------------------------------------------|
------------------------------------------|
------------------------------------------|
5-7-7--5-7-10-7-7--5-7-7--5-7-10-12-12----|
3-5-5--3-5-8--5-5--3-5-5--3-5-8--10-10----|

(x2, then breakdown, repeat again)

End on A

%%%%%%%%%%%%%%%%%%%%%%%%%%%%%%%%%%%%%%%%%%%%%%%%%%%%%%%%%%%%%%%%%%%%%%%%%%%%%%%%
PURPLE SNEAKERS
Tabbed by Dan

Tuning: Dropped D (DADGBE), capo on 2

Guide to tab:
h - hammer on
p - pull off
s - slide

VERSE RIFF 1:
--0-----0--|
--2h3p2-5--|
--2-----2--|
--2-----2--|
--0-----0--|
-----------|

CHORUS RIFF:
-------------------------------------3-3-3-3-3------|
---------------------4-4-4-4-4-4-4---3-3-3-3-3------|
---------------------0-0-0-0-0-0-0---0-0-0-0-0------|
--2---2-3---3-5------5-5-5-5-5-5-5---5-5-5-5-5------|
--2---2-3---3-5------5-5-5-5-5-5-5---5-5-5-5-5------|
--2---2s3---3s5------5-5-5-5-5-5-5---5-5-5-5-5------|
        But do you need somebody, to feel somebody?


Chords used (relative to capo):
 D    Dmaj7   F#m  FmMaj7b5  Em  A Asus4  Bm
-2-----2-------2----0--------0---0---0----2---------------------------|
-3-----2-------2----0--------0---2---3----3---------------------------|
-2-----2-------2----0--------0---2---2----4---------------------------|
-0-----0-------4----3--------2---2---2----4---------------------------|
-0-----0-------4----3--------2---0---0----2---------------------------|
-0-----0-------4----3--------2----------------------------------------|

Verse:
D
Had a scratch only you could itch

Dmaj7
Underneath the Glebe Point Bridge

F#m
And now every boy in a knitted vest

FmMaj7b5
Has got some precedent

D
So we took a personality pill

Dmaj7
And something red to swill

F#m
And now every fire has gone out

FmMaj7b5
in every heart that wanted to kill

A (quickly A Asus4)
Let's call it a day

Verse 2:
Every thought that once had a sound
We'll have to hide 'til no one is around
'cause there ain't no room in the city today
For explanations that you just can't say

Found out what shame can mean
In purple sneakers and grey jeans
And every walked to a school that once made sense
Sure felt like an accident
Let's call it a day

VERSE RIFF 1


Chorus:
D                         A
For every trouble you found
Bm                               Em
There's a drink to lose it and drown

CHORUS RIFF:
But do you need somebody, to feel somebody?


Verse:
Every day that once had a sound
We'll have to hide 'til no one is in town
I don't hate I just feel better
When no one else is around

So we'll take a personality pill
And something red to swill
And now every fire has gone out
in every heart that wanted to kill
Let's call it a day


Chorus:
For every trouble you found
There's a drink to lose it and drown
But do you need somebody, to feel somebody?

You can shave a million ways
To make damn sure that the twelve in you stays
But do you need somebody, to feel somebody?


Outtro:
-2--2--0------0--0--0------0--0--0------0----|
-3--3--3------3--3--3------3--3--3------3----|
-2--2--0h1h2--1--1--0h1h2--0--0--0h1h2--2----|
-0--0--0------0--0--0------0--0--0------4----|
-0--0----------------------------------------|
-0--0----------------------------------------|

x1

-2--2--0--0--0--0--0--0--0--0--0--0--0--0----|
-3--3--3--3--3--3--3--3--3--3--3--3--3--2----|
-2--2--1--1--1--1--0--0--0--0--2--2--2--2----|
-0--0--0--0--0--0--0--0--0--0--4--4--4--4----|
-0--0----------------------------------------|
-0--0----------------------------------------|
 repeat until end. Remember to windmill.

%%%%%%%%%%%%%%%%%%%%%%%%%%%%%%%%%%%%%%%%%%%%%%%%%%%%%%%%%%%%%%%%%%%%%%%%%%%%%%%%
PIZZA GUY

Tabbed by Shane Murphy

Dropped-G Tuning
CAPO 3

  B Absus2 E5  F#  Ab Am7add6
e-x---x----0---x---x---2-|
b-4---x----0---x---1---1-|
g-4---3----x---3---1---0-|
d-4---1----2---x---1---x-|
g-4---1----4---3---1---2-|
e-x---x----0---2---x---x-|
   G G/F# G/F
e--x---x--x-|
b--3---x--x-|
g--0---0--0-|
d--0---0--0-|
g--x---x--x-|
e--3---2--1-|

INTRO		B - Absus2 - E5  x2

	 B	    Absus2	    E5		 B		 Absus2   E5
Grab a six pack for the way home, its only twenty five minutes alone
	B		     Absus2		E5		 B
And a chance to listen what you see fit put your tail between your
Absus2	  E5
legs and your split
    B		Absus2 - E5	     B		 Absus2	  E5
Was never one for luck, on a pay rise or a girl you got stuck
	B		Absus2 - E5	     B	     Absus2		  E5
Never bother with FM radio but the compilation tape and we'll go

CHORUS
	    F#   Ab			A
And every dick that comes from the hills
	   F#    Ab	    Am7add6
Is gonna end a danger still

B - Absus2 - E5  x2

    B		     Absus2		 E5		     B		   Absus2
Was never one to let something go, to make you hate of his good folks
	    E5
you don't know
	 B			     Absus2		 E5			   B
As his girlfriend steals her rice mushroom slice you hope they never
	     Absus2	  E5
make their movie on time
    B		Absus2 - E5	     B		 Absus2	  E5
Was never one for luck, on a pay rise or a girl you got stuck
	B		Absus2 - E5	     B	     Absus2		  E5
Never bother with FM radio but the compilation tape and we'll go

REPEAT CHORUS

B - Absus2 - E5  x2

   B		Absus2     E5	 B			Absus2 - E5
In nineteen two twenty two the snick trail your it one you
	 B	     Absus2	    E5 - B		Absus2     E5
If you enter the datsun and go to another Massappeal show
 B - G - G/F# - G/F - E5  x10

Random fills on the E5 chord
e--------------------------------------------------------------------|
b--------------------------------------------------------------------|
g--------------------------------------------------------------------|
d--------------------------------------------------------------------|
g------6p4---------------4-------------------------------------------|
e--0-0------0-0--4p2p0-0---------------------------------------------|

B - G - G/F# - G/F - E5

B to finish
 PIZZA GUY - YOU AM I
(from the album Hi Fi Way)
Transcribed by Shane Murphy

INTRO		D - Bsus2 - G  x2
[ Tab from: http://www.guitaretab.com/y/you-am-i/106965.html ]
	 D	    Bsus2	    G			 D		 Bsus2     G
Grab a six pack for the way home, its only twenty five minutes alone
	D		     Bsus2		G		  D
And a chance to listen what you see fit with your tail between your
Bsus2		  G
legs and your split
    D		Bsus2	G	     D		 Bsus2	  G
Was never one for luck, on a pay rise or a girl you got stuck
	D		Bsus2 - G 	     D	     Bsus2		   G
Never bother with FM radio but the compilation tape then we'll go

CHORUS
	    A	   B			C
And every dick comes from the hills
	   A     B	    Cm7add6
Is gonna end a danger still

D - Bsus2 - G  x2

    D		     Bsus2		 G		     D		    Bsus2
Was never one to let something go, to make you hate of his good folks
	    G
you don't know
	 D			     Bsus2		 G			   D
As his girlfriend steals her rice mushroom slice you hope they never
	     Bsus2	  G
make their movie on time
    D		Bsus2 - G	     D		 Bsus2	  G
Was never one for luck, on a pay rise or a girl you got stuck
	D		 Bsus2 - G	     D	     Bsus2		  G
Never bother with FM radio but the compilation tape and we'll go

REPEAT CHORUS

D - Bsus2 - G  x2

   D		Bsus2      G	 D			Bsus2 - G
In nineteen two twenty two the snick trail your it one you
	 D	     Bsus2	    G - D		Bsus2      G
If you enter the datsun and go to another Massappeal show

D - Bb - A - Ab - G  x10

Random fills on the G chord
e--------------------------------------------------------------------|
b--------------------------------------------------------------------|
g--------------------------------------------------------------------|
d------2p0-----------------------------------------------------------|
a--------------2-2p0-------------------------------------------------|
e--3-3-------3-------3-----------------------------------------------|

D - Bb - A - Ab - G

D to finish

%%%%%%%%%%%%%%%%%%%%%%%%%%%%%%%%%%%%%%%%%%%%%%%%%%%%%%%%%%%%%%%%%%%%%%%%%%%%%%%%
THE APPLECROSS WING COMMANDER
Tabbed by Danny Yau and Bucky

capo 3

intro (this is how I fake it)
e|-------------0-0-|
B|-------------0-0-|
G|-1--1-1-1--1-0-0-| and let that note ring!
D|-2--2-0-2--2-0-0-|
A|-2--2-0-2--2-0-0-|
E|-0--0-0-0--0-----|

verse
e|-----------------|
B|-----------------|
G|-----------------|  x2
D|-2-2-2-2-2-2-2-2-|
A|-2-2-4-4-5-5-4-4-|
E|-0-0-0-0-0-0-----|


e|-----------------|
B|-----------------|
G|-2-2-2-2-2-2-2-2-|  x2
D|-2-2-4-4-5-5-4-4-|
A|-0-0-0-0-0-0-----|
E|-----------------|

chorus

D
Done a lot of the dumb things now

     G       G/F#    A*             *theres a lead bit here, not the chord
Sure hope we do some more

B                         A
And we'll wait all summer to piss on your floor

after the second chorus
e|-----3~---|
B|-----0~---|
G|-1-1-0~---| let the G ring
D|-2-2-0~---|
A|-2-2-2~---|
E|-0-0-3~---|

then:
G   A    E, then, A E

G/F# 2x0033

%%%%%%%%%%%%%%%%%%%%%%%%%%%%%%%%%%%%%%%%%%%%%%%%%%%%%%%%%%%%%%%%%%%%%%%%%%%%%%%%
STRAY

Transcribed by Shane Murphy
with help from Danny Yau
Dropped-D tuning

INTRO (the riff that slayed LA)

g|------------------------|
d|-9----9--9--9-7---7-7-7-|
a|-9h11-11-11-9-7h9-9-9-7-|
d|-9----9--9--9-7---7-7-7-|

Rhy. Fig. 1
g|---------------------------------------------|
d|-9-9--------9-9--------9-9--------9-9--------|
a|-9-9--7-9-7-9-9--7-9-7-9-9--7-9-7-9-9--7-9-7-|
d|-9-9--0-0-0-9-9--0-0-0-9-9--0-0-0-9-9--0-0-0-|

(with Rhy. Fig. 1  x1)
It's a regular show of pain
It's enough to give you something to say
	  Ab5			  Ab7	   E5 - Esus2 - E5
And you live for forty minutes a day can I have that?

g------------------------|
d--9-9--------9-9--------|
a--9-9--7-9-7-9-9--7-9-7-|
d--9-9--0-0-0-9-9--0-0-0-|

(with Rhy. Fig. 1  x1)
The biggest kick you ever got
Was paying out dinosaur rock
Ab5			Ab7	  E5 - Esus2 - E5   F#5 - Faug5 - E5 - D
You said that that prehistoric frock got a 		  stain
e----------|
b----------|
g----------|
d----------|
a--9-8-7---|
d----------|

Rhy. Fig. 1  x1

(with Rhy. Fig. 1  x1)
But every window has been closed
There's another rat friend you can toes
	  Ab5				     Ab7	  E5 - Esus2 - E5
If your brains would seem to speak for your clothes

g------------------------|
d--9-9--------9-9--------|
a--9-9--7-9-7-9-9--7-9-7-|
d--9-9--0-0-0-9-9--0-0-0-|

(with Rhy. Fig. 1  x1)
And for every handshake that will pay
There's another motherfucker who'll blame
	 Ab5			Ab7	  E5 - Esus2 -E5	F# - Faug5 - E5 - D
But to keep illegal dogs is so lame are you    stray

	D			   C		     B7
Those born with gold with weary soul shit eat their young and die

e----------------------|
b----------------------|
g--4---4----------2-x--|	  x4
d--4-4-4--4-4-----2-x--|
a--2-2-2--2-2-2h4------|
d----------------------|

A - A6 - A - E   	A - Bb - B
                 		Are you  stray
e--------------------------------------------------------------------|
b--------------------------------------------------------------------|
g--8b9r8b9---7------------8------------------------------------------|
d--------------9--7---9-------9---7---7-9----------------------------|
a--------------------------------------------------------------------|
d--------------------------------------------------------------------|

A - A6 - A - E	A - Bb - B
			Are you stray
e-------------------------------------------|
b-------------------------------------------|
g--8b9--------------------8-----------------|	x2
d------------9-7--7---9-------9---7---7-9---|
a-------------------------------------------|
d-------------------------------------------|

A - A6 - A - E	A - Bb - B
			Are you stray
e-------------------------------------------|
b-------------------------------------------|
g--8b9--------------------8-----------------|
d------------9-7--7---9---------------------|
a-------------------------------------------|
d-------------------------------------------|

A - Bb - B 	  A - Bb - B - A - Bb - B - A - Bb - B - A - Bb - B
e--------------------------------------------------------------------|
b--------------------------------------------------------------------|
g-------10b-----------10b----------10b-----------10b---------10b-----|
d--------------------------------------------------------------------|
a--------------------------------------------------------------------|
d--------------------------------------------------------------------|
A - B - A - D

e-----------|
b-----------|
g-----------|
d---9-\-----|
a---9-\-----|
d---9-\-----|

%%%%%%%%%%%%%%%%%%%%%%%%%%%%%%%%%%%%%%%%%%%%%%%%%%%%%%%%%%%%%%%%%%%%%%%%%%%%%%%%
HANDWASHER

Transcribed by Shane Murphy
Little help from Danny Yau
Little help from his friend David Lane

CAPO 2, Drop D tuning (DADGBe)

One - two - three - four

Rhy. Fig. 1
e-----0-0-0-0-0-0-0-0-0-0-0---------4-4-4-4---------0-0-0-0---------|
b-----3-3-3-2-2-2-2-1-1-0-1---------5-5-4-5---------1-1-0-1---------|
g-----0-0-0-2-2-2-2-2-2-2-2---------6-6-6-6---------2-2-2-2---------|
d-0/2-2-2-2-2-2-2-2-2-2-2-2-2-2-2-2-6-6-6-6-4-4-4/6-2-2-2-2-2-2-2-2-|
a-0/2-2-2-2-0-0-0-0-0-0-0-0-2-2-2-2-4-4-4-4-4-4-4/6-0-0-0-0-2-2-2-2-|
e-0/2-2-2-2-----------------2-2-2-2---------4-4-4/6---------2-2-2-2-|

(with Rhy. Fig. 1  x2)
Never wanted more from my local store
A chance to be myself be on the right side of the shelf
But for every drink I serve sure wish I had callous nerve
'Cause for every sandwich I know there's a sack of shit to be dosed

Rhy. Fig. 2  x2
e---------------------------------------------------------|
b----5-5-3---3----5-5-3---3-3--5-5-3---3------5-5-3---3---|
g----0-0-0---0----2-2-2---0-2--2-2-2-2-0------0-0-0---0---|
d-x--x-x-x---0-2--2-2-2-2-0-0--0-0-0-0-0---x--x-x-x---0---|
a-2--2-2-2-2---0--0-0-0-0---0--0-0-0-0---1/2--2-2-2-2-----|
e-2--2-2-2-2-----------------------------1/2--2-2-2-2-----|

(with Rhy. Fig. 1  x2)
Wash my hands in shame four thousand times a day
And when I make it on home there's the smell that always stays
I know the regulars well from every stale grill I sell
>From bainmaries to cold tea, I'm the service that you need

Rhy. Fig. 2  x2

B7		     D
There's a poison in my drink
	    A7			         D-E
Its gonna take each good thought I could think
B7     		   D
There's a poison I know

(with Rhy. Fig. 1  x1)
Wash my hands in shame four thousand times a day
For while I service your need I'm just dying to be clean

%%%%%%%%%%%%%%%%%%%%%%%%%%%%%%%%%%%%%%%%%%%%%%%%%%%%%%%%%%%%%%%%%%%%%%%%%%%%%%%%
PUNKARELLA

Transcribed by David Lane

CHORDS USED
B  E  D  Dmaj7  A  G
7-----2---0--------3-|
7--9--3---2-----2--3-|
8--9--2---2-----2--0-|
9--9--0---0-----2--0-|
9--7------------0----|
7------------------3-|

INTRO
------------------|
------------------|
------------------|
9-9-9-9-9-9-9-9-9-|
------------------|
7-7-7-7-7-7-7-7-7-|

VERSE

RIFF 1
--------------------------|
--------------------------|
--------------------------|
7-9---7-9---7-9---7-9-9-9-|
7-9---5-7---7-9---5-7-7-7-|
5-7---5-7---5-7---5-7-7-7-|

RIFF 2
---------------------|
---------2--2-2------|
---------4--3-3------|
---------4--4-4------|
7-7-7-7--4--4-4------|
5-5-5-5--2--2-2------|

RIFF 1                                        RIFF 1
Don't you wish that your kids all looked more fine?
RIFF 1                                   RIFF 2
Do you feel that your guy stole all your style?
RIFF 1                                     RIFF 1
Animal slippers and a drink get the Sunday mail
RIFF 1                                 RIFF 2
Coffee teeth and a cigarette heart for sale
PRE-CHORUS
B              E                       B      E
Any minute now something's gonna happen
B                           E               D   A
Everything falls except the shit you fell in
Dmaj7          A         Dmaj7                    A
Mailman, black umbrella. Doesn't feel the need to tell ya
Dmaj7             A            G           A
Sure have looking better. Then ego kissing fools
    G                     A                G                          E
are teaching your kids in private schools, crack another bottle, it's fine
VERSE 2

RIFF 1                           RIFF 1
Monday morning who could ask for more
RIFF 1                                    RIFF 2
Smoking pot, got the girls all round next door

B              E                       B      E
Any minute now something's gonna happen
B                           E               D   A
Everything falls except the shit you fell in
Dmaj7          A         Dmaj7                    A
Mailman, black umbrella. Doesn't feel the need to tell ya
Dmaj7             A            G           A
Sure have looking better. Then ego kissing fools
    G                     A                G                          E
are teaching your kids in private schools, crack another bottle, it's fine

REPEAT RIFF 1 TO END

LAST NOTE
      S
---------|
---------|
---------|
9-----8--|
---------|
7-----6--|

%%%%%%%%%%%%%%%%%%%%%%%%%%%%%%%%%%%%%%%%%%%%%%%%%%%%%%%%%%%%%%%%%%%%%%%%%%%%%%%%
KEN (THE MOTHER NATURE'S SON)

Transcribed by Ben Donnelly  &
               Danny Yau 

drop-d tuning (DADGBe)
capo 2

Intro:
e|-0-
B|-0-
G|-2-(let ring)
D|-2-
A|-2-
D|-2-


VERSE
   Em      A         D
e|-------------------------------|
B|---------2---------3-3----3-3-|
G|---------2--X------2-0h2--2-2-|
D|-2--X0--2--X-0--0-0----0-0-|
A|-2-X0--0--X-0--0-0----0-0-|
D|-2--X--------------------------|

CHORUS
   A       F          D
e|----------------------------------|
B|-2-------0----------3-3----3-3---|
G|-2--X-0--0--X-0-----2-0/2--2-2---|
D|-2--X0-3--X-0----0-0----0-0---|
A|-0--X-0--3--X0----0-0----0-0---|
E|---------3------------------------|

repeat as seen fit

(Then you repeat this 8 times)
   A	          F
e|------------------------|
B|-2--3-3-3-2-----6-6-5-5-|
G|-2--2-2-2-2--0--5-5-5-5-|
D|-2--2-2-2-2--0--5-5-5-5-|
A|-0--0-0-0-0--0--0-0-0-0-|
E|------------------------|

%%%%%%%%%%%%%%%%%%%%%%%%%%%%%%%%%%%%%%%%%%%%%%%%%%%%%%%%%%%%%%%%%%%%%%%%%%%%%%%%
GRAY

Asus2 x02200
G/F#  2x0033

Intro-
chords G Em Asus2 F
       G Em Asus2 Cm

e-----------------------------------------------------------------------|
b-----10-h-12--12(13)--10--10-----10---------10--10--10--12-s-9---------|
g------------------------------12-----12-12-----------------------------|
d-----------------------------------------------------------------------|
a-----------------------------------------------------------------------|
e-----------------------------------------------------------------------|

e-----------------------------------------------------------------------|
b-----10-h-12--12(13)--10--10-----10---------10--10--10--12--12(13)-----|
g------------------------------12-----12-12-----------------------------|
d-----------------------------------------------------------------------|
a-----------------------------------------------------------------------|
e-----------------------------------------------------------------------|

G              Bm
Drunk at Cannon Falls.
Em
 I never made the call
          Cmaj7
I had your number
                     Cm
It was chiselled on my hand and stained

G                  Bm
Fell asleep to the line
Em
 Lyle sung "She's made up her mind"
           Cmaj7                          Cm
Now I'm the twenty first descendant of the age and

G             G/F#            Em
I don't want it getting 'round town
             Asus2                     F
'cause you'll kick my skinny ass if you ever saw me down
     G                 G/F#        Em
I can deny it 'til they all gone away
     Asus2                                Cm
But I just don't think we'll ever get that other band together

Tried on all of your clothes
But even me and your girlfriend know
That there's only so much one guy
Can steal and so

We'll all choke on the slack
Try like hell to dream you back
Of the nothing I got
You know that you've always got half and so


Solo-  Chords over this are the same as intro

e------------------------------------------------|
b------------------------------------------------|
g----------------------4-------------------5-----|
d-----5--5--5--5---7-------5--5--5--5--7---------|
a------------------------------------------------|
e -----------------------------------------------|


%%%%%%%%%%%%%%%%%%%%%%%%%%%%%%%%%%%%%%%%%%%%%%%%%%%%%%%%%%%%%%%%%%%%%%%%%%%%%%%%
HOW MUCH IS ENOUGH

Transcribed by David Lane

Capo 3rd fret Tuning EACGBE

CHORDS USED (Relative to capo)

Csus2 Csus2#5 F  G  Em  A F5 D/F#
-0-------0----0--0--0---0--------|
-3-------3----0--0--0---0--------|
-0-------1----0--0--0---0--------|
-0-------0----0--0--0---0--------|
-3-------3----3--5--2---7-3--5---|
--------------1--3--0---5-1--2---|


INTRO   Csus2 / Csus2#5
        Csus2 / Csus2#5

VERSE 1

         Csus2
Would it stain
       Csus2#5                  Csus2
If the lights fell down on your name
         Csus2#5                    Csus2
And each face began to look all the same
    Csus2#5   F
How much is enough?
        G                      Em                       A
Did you ever want to just lose touch with everybody you know?

LINK (Relative to capo)
--------------------------------|
--------------------------------|
--------------------------------|
5-5-5-5-5-5-5-5-----------------|
----------------5-5-5-5-5-5-5-5-|
--------------------------------|

(x2)

VERSE 2

       Csus2
In the morning
            Csus2#5         Csus2
When you've worn this taste away
                Csus2#5                     Csus2
The last of the red and all the records you play
    Csus2#5  F
How much is enough?
        G                      Em                       A
Did you ever want to just lose touch with everybody who hurts?
F
Did you ever want to join a collective
D/F#
Or throw a party just to make sure you missed it?
F
Did you ever want to be a collective?

Csus2 / Csus2#5
Csus2 / Csus2#5

             Csus2
And you sell out
       Csus2#5                Csus2
To the dealer with the lowest cost
        Csus2#5              Csus2
And you burn every preceding flaw
    Csus2#5
How much is enough?
Did you ever want to get in touch with somebody you hurt?
F
Offer up some kind of collective
D/F#
So you can never ever be left selected
F
Did you ever want to join a collective?

OUTRO

Csus2 / G/B / A / G / F / Em / F / Em

SOLO

  BU    BU    BU     BU      BU      BU       BU       BU       BU
--------------------------------------------------------------------------|
5-----5-----5-----8-------8-------8--------10-------10-------10-----------|
7-(9)-7-(9)-7-(9)-10-(12)-10-(12)-10-(12)--12-(14)--12-(14)--12-(14)------|
--------------------------------------------------------------------------|
--------------------------------------------------------------------------|
--------------------------------------------------------------------------|

BU      BU      BU      BU    BU    BU    BU      BU      BU      BU
------------------------------------------------------------------------|
8-------8-------8-------5-----5-----5-----8-------8-------8-------5-----|
10-(12)-10-(12)-10-(12)-7-(9)-7-(9)-7-(9)-10-(12)-10-(12)-10-(12)-7-----|(9)
------------------------------------------------------------------------|
------------------------------------------------------------------------|
------------------------------------------------------------------------|
------------------------------------------------------------------------|

If the lights, they fell
Do you think you could tell
just how much?

If the lights, they fell
Do you think you could tell
just how much?

End on Csus2

%%%%%%%%%%%%%%%%%%%%%%%%%%%%%%%%%%%%%%%%%%%%%%%%%%%%%%%%%%%%%%%%%%%%%%%%%%%%%%%%
Related for Hi Fi Way tab