Guitaretab - guitar tabs
Song name
# A B C D E F G H I J K L M N O P Q R S T U V W X Y Z

You Am I - Dress Me Slowly tab

Highlighted       Show chord diagrams
-------------------------------------------------------------------------------
			     DRESS ME SLOWLY (Album)  You Am I
-------------------------------------------------------------------------------
Tabbed by: Tyler J (actually tabbed by tabbers mentioned)
Email: full_metal_orange AT hotmail DOT com

DRESS ME SLOWLY
by Tim Rogers/You Am I

  1.  Beautiful Girl
  2.  Get Up
  3.  Damage
  4.  Satisfied Mind
  5.  Bring Some Sun Back
  6.  Weeds
  7.  Sugar
  8.  Open All Night

%%%%%%%%%%%%%%%%%%%%%%%%%%%%%%%%%%%%%%%%%%%%%%%%%%%%%%%%%%%%%%%%%%%%%%%%%%%%%%%%
BEAUTIFUL GIRL
Tabbed by Michael Madden 
with the YAIC team fix (tm)

capo 1

CHORDS USED:

Cadd9 Am7 D6 Ebdim

-------0--2----2----|
--1----1--0----1----|
--0----0--2----2----|
--0----2--0----1----|
--3----0------------|
--------------------|

   G
Hey you
        D                Em
Put yer chewing gum in my fist
             B7              Cadd9
And pass the last over of yer drink
                A7            Cadd9
You've known me long enough to know
           A7           G
Yeah I'm in deep and it shows
          D             Em
I met her on grand final day
    B7                   Cadd9   A7
And from sixteen thousand miles away
       Cadd9
Yeah I knew
         Em                   A7
I was in trouble deep past me boots

Am7            D6
You think it's so hard
Am7          D6
Alone in the world
         G                 Fadd9               Am7
Yeah well just try keeping up with a beautiful girl
        F         D/F#      Am7
Keepin' up with a beautiful girl
        F         D/F#      Am7
Keepin' up with a beautiful girl
        F         D/F#      Cadd9  A7 Cadd9
Keepin' up with a beautiful girl

So I strayed (keep your head in the sky)
Til my bridges all burnt in a sneeze (leaving nothing behind)
And I'm holding by the skin of my teeth
She got me grinning like a karaoke king
Without a clue on how the thing begins
And that's where the hell I'll reside
In between the width of her smile
So if you spy me just let me be
I'm far beyond what you knew of me

You think it's so hard
Alone in the world
Yeah well just try keeping up with a beautiful girl
Keepin' up with a beautiful girl
Keepin' up with a beautiful girl
Keepin' up with a beautiful girl

Em          A7
You're never alone
     Cadd9           G
It's you against the world
Em           A7                  D             Ebdim
You're the uninvited oyster next to the pearl
                     Em                   Am7
The best lesson i've learned - oh yeah -

       D6                  Am7
Keepin up with a beautiful girl -
               D6                     Am7
i need to keep up with that beautiful girl
        D6                  Am7
Keepin' up with a beautiful girl
        D6                  Am7
Keepin' up with a beautiful girl
        F         D/F#      Am7
keepin' up with a beautiful girl
        F         D/F#      Am7
keepin' up with a beautiful girl
        F         D/F#      Am7
keepin' up with a beautiful girl
        F         D/F#      Am7
keepin' up with a beautiful girl

end on a G

DAVEY GUITAR:

'Yer never alone' bit:

          Em     A7     C         G           Em     A7     D        D/D#
e------------------------------------------------------------------------|
B--/8-8-7-5--5-3-2--2-2-1-1---1---1-0--/8-8-7-5--5-3-2--2-2-3---3---3-4--|
G---------------------------0---0-----------------------------2---2------|
D------------------------------------------------------------------------|
A------------------------------------------------------------------------|
E------------------------------------------------------------------------|
         Em           Am
e------------------------|
B----4---4-5-7-8-7-5-/8--|
G--4---4-----------------|
D------------------------|
A------------------------|
E------------------------|

Ending: After last 'keepin up' bit:

e------------5-----------------------5-------------|
B------------------------------------------------8-|
G--0-2/5-5-7----0-2/5-7-9--0-2/5-5-7---0-2/5-5-7---|
D--------------------------------------------------|
A--------------------------------------------------|
E--------------------------------------------------|


%%%%%%%%%%%%%%%%%%%%%%%%%%%%%%%%%%%%%%%%%%%%%%%%%%%%%%%%%%%%%%%%%%%%%%%%%%%%%%%%
GET UP

Dave gtr; Dropped D (DADGBE)
Tim gtr; Capo 4, Dropped G (EGDGBE)

TIM GTR
-------

CHORDS USED (relative to capo)

E  B  G#m  C#sus  F#  Eb/G  C#  Eb
-------0-----0----------------------|
-------0-----0----------------------|
0--0---0-----0----7----8----2---0---|
5--0---4-----2----7----9----2---4---|
5--0---4-----2----7----8----2---4---|
-------0----------------------------|


DAVEY GTR
---------

CHORDS USED

F# Eb/G E   C#
--------------|
--------------|
------------6-|
4---5---2---6-|
4---6---2---4-|
4---5---2-----|

Phrase 1
4---------|4---------|
4---------|4---------|
4---------|6---------|
6---------|6---------|
----------|----------|
----------|----------|

Phrase 2
--------------------|
--------------------|
--------------------|
7-7-9---7-7-7-7-----|
7-7-9---7-9-7-9-----|
7-7-7---7-7-7-7-----|

Phrase 3
--0-----2-----0-----2-----0---------|
----5-----5-----5-----5-----5-------|
4-----4-----4-----4-----4-----4-----|
------------------------------------|
------------------------------------|
------------------------------------|

Phrase 4
DUD
-----------------------|
-----------------------|
444--6--7--8-9---------|
-----------------------|
222--4--5--6-7---------|
-----------------------|

VERSE 1

E                  B                      E
 Got a kiss on the neck from a mornin' cartoon
                B                  E
Pullin' out the knot, I just can't lose

                                     (Ph. 1)
            B                        G#m
Grabbin' my shoulder, turned out the night
             C#sus
Like a smile after you've cried


               (Ph. 2)
E              B                        E
  The lady out walkin' with her popcorn pup

               (Ph. 2)
               B                              E
To get out and smoke before her husband wakes up

            (Ph.2)         (Ph. 1)
            B                    G#m
Eyes to the asphalt, plastic bag hands

                                   (Ph. 3)
            C#sus                  E
Just get on outta there, just get away from that man


PRECHORUS

F#           Eb/G
Well I'm all thumbs and toes
         E                         C#
With the way that it comes and the way that it goes

CHORUS

Eb       E       B
  (Get up Get up) I gotta loosen this load
Eb       E       B
  (Get up, get up) Get some fire in my throat

LINK

    (Ph. 4)       (Ph. 2)
E   B             E     B             E


VERSE 2

                   (Ph. 2)
                   B                            E
See the man in the corner tryin' to make em all smile

                (Ph. 4)
                B                       E
And missin' the one who matters all the while

                (Ph. 3)                     (Ph. 1)
                B                           G#m
She'll beat him senseless but he just can't see

                C#sus
It aint for the crowd that you bleed

           (Ph. 4)
So be good to your barkeep man
                  (Ph. 4)
Its more than yer drink, he's got his hand
                  (Ph. 4)                     (Ph. 1)
Can see that your nervous and it shits him to tears
                                             (Ph. 3)
Yeah he just don't want to wait and he don't care about your band

(PRECHORUS, CHORUS)

SOLO SECTION

         (Ph. 1)
I need a life dedicated
not this endless parading
         (Ph. 3)
Help me, alright

(Get up, get up)
Yeah I gotta loosen this load
(Get up, get up)
And get some fire in my throat

I want a life dedicated
not this endless parading
Help me, alright

I need to do more, but I aint been sleeping
For the longest time
For the longest time
For the longest time

If I could live for one day without being sorry I know
One day without being sorry I know
One day without being sorry

%%%%%%%%%%%%%%%%%%%%%%%%%%%%%%%%%%%%%%%%%%%%%%%%%%%%%%%%%%%%%%%%%%%%%%%%%%%%%%%%
DAMAGE
First Single from the forthcoming album "Dress Me Slowly"
Tabbed By Daniel Cheail

Standard tuning, capo 3

Chords:

 Am  Am+  Am6  Am/G Am/F  E7sus4 E7  Dm  G7  E/G#   a Dmaj7  Am(maj7)
--0---0----0----0-----0-----0----0---1---1----0-----0---2-----0--------|
--1---1----1----1-----1-----0----0---3---0----0-----2---2-----1--------|
--2---0----0----2-----2-----2----1---2---0----4-----2---2-----1--------|
--2---3----4----2-----2-----0----0---0---0----2-----2---0-----2--------|
--0---0----0----X-----X-----2----2-------2----2-----0---------0--------|
----------------#-----1-----0----0-------3----4------------------------|

Intro:
 Am / Am+ / Am6 / Am+
 Am / Am+ / Am6 / Am+


Verse 1:
        Am          Am/G       Am/F
 I woke up with the war in my head
                   E7sus4           E7
 An old man's grumble, and an extra space in the bed
 Am     Am/G      Am/F                       E7sus4
 And if ole' John Prine, could sing the next line
       E7
 'Bout something that can make me smile

Bridge:
 Dm                      G7
 I'm gonna have to be content to
       E/G#                     Am       Am(maj7)
 Stare at your baby photos till it makes sense
 Dm                          G7
 And were you ever mine, anyway?
       E/G#
 Speak up as I drop away

Chorus:
     a
 I wrote down what I think
         Dmaj7
 On the head of a matchstick
 a
  Wrote it all short and sweet
Dmaj7
 All that made sense to me

 F#m
 Burn six thousand miles
 Bm
 Sorry for all the times
 Dmaj7
 I just can't add up all the songs
                      (Repeat intro)
 To find the damage we done


Verse 2:
 I fought for you like a doll from a tree
 I keep a straight stiched face
 As the ground makes a bed for me
 I keep my eye where I fell it sends no replies

Bridge 2:
 You can run so long from sadness
 That you're never at home for the fun
 I can't make excuses for the short-hand abuses
 Thank god it ain't a sunday night

Chorus:
 I wrote down what I think
 On the head of a matchstick
 Wrote it all short and sweet
 All that made sense to me

 I burnt six thousand miles
 Sorry for all the times
 I just can't add up the songs
 To find the damage...

 I wrote down what I think
 On the head of a matchstick
 I wrote it all short and sweet
 All that made sense to me
 I'm burning out in the lights
 Sorry for all the times
 I just can't see how it comes
 To find the damage we done

 The damage we done
 The damage we done

%%%%%%%%%%%%%%%%%%%%%%%%%%%%%%%%%%%%%%%%%%%%%%%%%%%%%%%%%%%%%%%%%%%%%%%%%%%%%%%%
SATISFIED MIND

Transcribed by the You Am I Central team

CHORDS USED

E/A  Asus2 Bsus2 C#m G E C#5 G#5 A5
-0-----0-----2----4--3-----------------|
-0-----0-----2----5--3-----------------|
-1-----2-----4----6--0----6------------|
-2-----2-----4----6--0----6---6--7-----|
-0-----0-----2----4--X----4---6--7-----|
---------------------3--------4--5-----|

VERSE RIFF
                (VERSE RIFF 2)
---------------|------0------------------------------|
---------------|------0------------------------------|
---------------|-------------------------------------|
4-/-6----------|--2-------4-/-6------------4-4--4----|
2-/-4---4-/-6--|--2-------2-/-4---4-/-6----4-4--4----|
--------2-/-4--|--0---------------2-/-4----2-2--2----|

---------------------0---------------------------------------0---------|
---------------------0---------------------------------------0---------|
-------------------------------------------------------------1---------|
4-/-6------------2-------4-/-6------------4-4----4---4-------2---------|
2-/-4---4-/-6----2-------2-/-4---4-/-6----4-4----4---4-------0---------|
--------2-/-4----0---------------2-/-4----2-2--0-2-0-2---4-------------|

VERSE 1
-------

VERSE RIFF
Get the lead on out 'coz it's my round
And I punched the van 'coz I lost the sound
                                 VERSE RIFF
And then I fell on down, oh yeah
I ain't old enough to have walked the line
But I've circled this room for the twenty fifth time

CHORUS
------
[ Tab from: http://www.guitaretab.com/y/you-am-i/106969.html ]
      Asus2
For a fortunate son I'm such a jealous guy
      Bsus2
Got a bone to pick I dunno why
  C#m
A bottle o' wine and Patsy Cline
    G
But what would I do with a satisfied mind
E       C#5
Hey hey yours for ten
  G#5                    A5           E
I fell on down I'm gonna do it again

VERSE 2
-------

       VERSE RIFF 2
What I gave away and what I left behind
Swallowed history like a five an' dine
                               VERSE RIFF
And then I fell on down oh yeah
Y'all knew the guy he was the king of the kids
Threw his trophies to the sky as he jumped from the bridge yeah

CHORUS
------
      Asus2
For a fortunate son I'm such a jealous guy
      Bsus2
Got a bone to pick I dunno why
  C#m
A bottle o' wine and Patsy Cline
    G
But what would I do with a satisfied mind
E       C#5
Hey hey yours for ten
  G#5                    A5           E
I fell on down I'm gonna do it again

BRIDGE
------

--------------7----------7-------------0---------------5----|
--------------7------------7-----------0------4--4-4---5----|
---9--9-9--8--7--------------7---------6------6--6-6---6----|
---9--9-9--9--9-----9----------9-----7--------7--7-7---7----|
---7--7-7--7--7-----7------------7-0--------0----------0----|
0----------------0----0-------------------------------------|

--------------7----------7-------------0---------------5-----0-----------|
--------------7------------7-----------0------4--4-4---5-----0-----------|
---9--9-9--8--7--------------7---------6------6--6-6---6-----9-----------|
---9--9-9--9--9-----9----------9-----7--------7--7-7---7-----9-----------|
---7--7-7--7--7-----7------------7-0--------0----------0-----7-----------|
0----------------0----0--------------------------------------0-----------|

SOLO (Over VERSE RIFF)
----------------------

12------12----------12-------------------------------------------------------------|
15-(17)-15-(17)-----15-(17)-15-----------------------------------------------------|
-----------------------------------------------------------------------------------|
-----------------------------------------------------------------------------------|
-----------------------------------------------------------------------------------|
-----------------------------------------------------------------------------------|


And if you're looking for the guy who can see
With some of these damn apologies
A bottle o' wine and Patsy Cline
But what would I do with a satisfied mind

Hey hey yours for ten
I fell on down I'm gonna do it again
Hey hey your foot down
I fell on down I'm gonna do it again
Hey hey get on up
I fell on down I'm gonna do it again
A bottle o' wine and Patsy Cline
But what would I do with a satisfied mind
Oh yeah
What would I do?

%%%%%%%%%%%%%%%%%%%%%%%%%%%%%%%%%%%%%%%%%%%%%%%%%%%%%%%%%%%%%%%%%%%%%%%%%%%%%%%%
BRING SOME SUN BACK

transcribed by the You Am I Central team
'crack at solo' by Ben Ferguson 

capo 2

A6        x07670
Dm(maj7)  xx0767
Gmaj7     3x0032
Aaug5     x03220
A6*       x04220

A6     Dm(maj7)                 A6
I just don't know how to talk to you
     Dm(maj7)                     Bm
There aint much that I want to get through
    E7                            Bm
Just stare at you in silence thats okay
      Gmaj7                         A6
Like a dog outside your window in the rains

     Dm(maj7)                           A6
You're horse mounts so high that I can't see
     Dm(maj7)                         Bm
The distance that I fall each time you leave
    E7                            Bm
Without the sentences that keep you quiet
  Gmaj7
And stop me at the line

  a                Aug5
So go on out in that heat so familiar
A6*                      Dm
Just go on and bring some sun back with you
B           D                      a  Aug5
  bring some sun back with you yeah
B                       D                      a  Aug5
go on out and bring some sun back with you yeah


Could you give me just a minute of me needs
You've seen me at my worst in its degrees
The garbage growing deep around my toes
Got nothing going for me but my nose

I got a thing going with old Jesus Christ
He keeps me up from sleeping straight at night
And I need to tell you something about the baggage
If I can find the language

Cos she walks like a cello in good vibrations
metered and deadly til I can't help but cave in
bring some sun back with you yeah
go on out and bring some sun back with you yeah

            B7sus4
I'm speaking rhythms and rhymes
   E7                             a   Aug5
and metres and times that I should understand
         F#m
but this big old tongue
            F#m7
should have stoped not begun
            Bm
Thats why I do not what I say
     G
That stuff can't give me away

Solo

e |-------------------------------------------------------------------------------7-|
B |-------------------------------------------------------------------------------7-|
G |--9---9---9--7--6---7---7---7--6--4--9---9---9--7--6---7---7---7--6--4---7-h-9---|
D |---------------------------------------------------------------------------------|


e |----------------------------7----------------------------------------------------|
B |-------------------------------10--10-p-8-p-7--8--7----------------------7---8---|
G |--7-h-9---9--7--6----7-s-9----------------------------9--7--6-----6-s-7----7-----|
D |------------------9--------------------------------------------9-----------------|


e |---------------------------7-----9-----10-s-12--|
B |---------7----8----10---------------------------|
G |--7-s-9----9----9-------9----9------9-----------|
D |------------------------------------------------|

So go on out in that heat so familiar
Just be sure to bring the sun back with you
bring some sun back with you yeah
bring some sun back with you yeah
bring some sun back with you yeah

%%%%%%%%%%%%%%%%%%%%%%%%%%%%%%%%%%%%%%%%%%%%%%%%%%%%%%%%%%%%%%%%%%%%%%%%%%%%%%%%
WEEDS

tabbed by Dan Cheail

C / C/B / Am / C/B
C / C/B / Am / C/B
C / C/B / Am / Em / Em/F# / G7


                C         C/B  Am
well, who'dve thought?
            C    C/B  Am
Who could know?
      C              Am           Em        /F#   G7
That time was ever gonna go this darn slow

           C        C/B   Am
and she's late
                         C     C/B   Am
yeah but you just don't know
           C          Am                  Em         /F#  G7
if you're ever gonna get on through this year alone

            C
it was the way she put her hand on her hip
            C7
and the sparkle in her eye
          F                             G#
but you wonder if it's gonna be there all the time

          C     /B  Am
y'know leaves they fall
         Em                 G7             C    A7
but you know you're never gonna sweep 'em all
      F
and weeds they grow
  G                                 C
peekin' out on thru the grass and snow

-------------------|
-------------------|
-----------0h2--0--|
-------0h2---------|
---0h2-------------|
-3-----------------|

yeah

and he's a fake
from his smile to the tatts right there on his toes
but you just not sure if you're ever gonna get thru this yaer alone

he don't hold your hand
yeah just when you need
yeah, but you're sure that twinkle in his eye is just there for you but you
can't ignore
that he sure look slike your dad when he can still look straight at night
when he tucks you in and kisses your belly, and strokes your hair so you
just don't cry

leaves...

you sure wish you knew
who was on the half back flank
back twenty years when you won those flags on back to back

would sure make the stand-off make more sense
if yo ucould stand toe-to-toe on who took the bench
and not htis silent treatment that leaves you wondering if this baby's
heaven sent

it was the way she put her hand on her hip
and the sparkle in her eye
but you wonder if it's gonna be there all the time

leaves...


%%%%%%%%%%%%%%%%%%%%%%%%%%%%%%%%%%%%%%%%%%%%%%%%%%%%%%%%%%%%%%%%%%%%%%%%%%%%%%%%
SUGAR

transcribed by the You Am I Central team

capo 1

odd chords used
Em(maj7)  021000
Fmaj7/A   533500

           G
Sugar sit a while
                  B7
come and rest your feet
          Cmaj7
Its been a long long while
     G
since you were been close to me

                G
Lets polish of a few
              B7
Underneath the sky
     Cmaj7
Its pulling all its faces
    Em
You wanna stand real quiet
   Em(maj7)
and see just what it brings
Em7
we've been running too much
       A7
need to miss out on a few things

 C        Am7    G   /F# Em7
If we just get it on
 C        Am7     G     /F# Em7
Tease and treat me wrong
 C
Birds do it
Am7
Bees do it
G                /F# Em7
Drop right down to my knees to do it
    C             D     Em   A7
Just get me on my feet again
C            A7   G
Get me on my feet again

Swinging like a tire
Princess off the beat
Telephone wires with all
Explode at your feet

I'm running out of blood
But i'm never cold
But I need to jump those fences
Holding neath the show
Cos I see just what I need
So drag this boy on over
Let him fall real deep

If we just get it on
Tease and treat me wrong
Birds do it
Bees do it
Drop right down to my knees to do it
Just get me on my feet again
Get me on my feet again

SOLO
Fmaj7/A / G

Fmaj7/A / G

Am7 C/B / C

D  D/C / D/B D/A

D  D/C / D/B D/A / D/F#

Sugar I'm a mess
But its where I wanna be
I wanna burn out with a smile
That cuts right through my teeth

Everyone gets rained
Rained on just the same
But lately its been soaking
Us right to the veins
And we're running out of time
So drag this boy on over
And keep him til its light

Can we just get it on
Tease and treat me wrong
Them birds do it
Them bees do it
Drop right down to my knees to do it
Just get me on my feet again
Just get me on my feet again
Just get me on my feet again
Get me on my feet again

%%%%%%%%%%%%%%%%%%%%%%%%%%%%%%%%%%%%%%%%%%%%%%%%%%%%%%%%%%%%%%%%%%%%%%%%%%%%%%%%

OPEN ALL NIGHT

CHORDS USED
C  Am  E7  Fsus2  G  G7  G6 Am(maj7) Am7  D7 C(#5th) Am/C C7 Fm F
0--0---0-----0----3--3---3-----0------0---0---------------0--1--1----|
1--1---0-----1----3--3---3-----1------1---1-----1------1--1--1--1----|
0--2---1-----0----0--0---0-----1------0---2-----1------2--3--1--2----|
2--2---0-----3----0--3---2-----2------2---0-----2------2--2--3--3----|
3--0---2-----3----X--X---X-----0------0---------3------3--3--3--3----|
-------0-----1----3--3---3-----------------------------------X--X----|


capo 4

Intro/riff
---------------------------------|
-1-1-1-1111111-1-1-1-1111111-----|
-0-0-0-0000000-2-2-2-2222222-----|
-0-2-0-2020202-0-2-0-2020202-----|
-3-3-3-3333333-0-0-0-0000000-----|
---------------------------------|


C                               Am     E7
It's been a long day and you're still retarded
   Am         E7
and can't get started
        Fsus2              G        G7  G6  G
and your perfect toes just wont sit still

C                         Am     E7
A hundred reasons just to lie down faceless
 Am         Em
leave no traces
      Fsus2                G
of the fortunes wrapped up in your head

Am
and no one knows just how
Am(maj7)
you could turn upside down
Am7
you're anything upright
    D7
But nothing passes you by
C          C(#5th)
Oh yeah its what you show
          Am/C            C7
If you're in a hurry I'll dress you slow.
Fsus2   Fm
Oh yeah each night
F                  D7
nothing passes you by
C            E7                F             Fm
Your credits good here, you'll always find a seat
          C                 A7
Leave the keys out, leave a light on
      D7   Fm  C
we're open all night

C A7 D7 Fm C

You never thought that folks could dig their teeth in
just to see if
you could fight or if you'd cry
All because you gave your cheeck up for the kissing
its there for the kicking
you just can't raise your eyes goodbye

Am
and no one knows just how
Am(maj7)
you could turn upside down
Am7
you're anything upright
      D7
Let nothing pass you by
C          C(#5th)
Oh yeah its what you show
          Am/C            C7
If you're in a hurry I'll dress you slow.
Fsus2   Fm
Oh yeah each night
F                  D7
nothing passes you by
C            E7                F             Fm
Your credits good here, you'll always find a seat
          C                 A7
Leave the keys out, leave a light on
      D7   Fm  C
we're open all night
Related for Dress Me Slowly tab