Song name
# A B C D E F G H I J K L M N O P Q R S T U V W X Y Z

You Me At Six - Promise Promise tab

Help us improve GuitareTab! Take a short survey!
Guitar 1:

 PM PM PM PM PM PM PM PM PM PM PM PM PM PM PM PM    
                                                          3x
E||----------------------------------------------------||
B||---6--6--6--6--6--6--6--6--5--5--5--5--5--5--5--5---||
G||*--5-----5-----5-----5-----5-----5-----5-----5-----*||
D||*--------------------------------------------------*||
A||----------------------------------------------------||
E||----------------------------------------------------||


  PM PM PM PM PM PM PM PM PM PM PM PM PM PM PM PM  
 
--------------------------------------------------|
--8--8--8--8--8--8--8--8--8--8--8--8--8--8--8--8--|
--5-----5-----5-----5-----5-----5-----5-----5-----|
--------------------------------------------------|
--------------------------------------------------|
--------------------------------------------------|
 
    PM PM PM PM PM PM PM PM PM PM PM PM PM PM PM PM  3x
|----------------------------------------------------||
|---6--6--6--6--6--6--6--6--5--5--5--5--5--5--5--5---||
|*--5-----5-----5-----5-----5-----5-----5-----5-----*||
|*--------------------------------------------------*||
|----------------------------------------------------||
|----------------------------------------------------||
  
  PM PM PM PM PM PM PM PM PM PM PM PM PM PM PM PM
--------------------------------------------------||
--8--8--8--8--8--8--8--8--8--8--8--8--8--8--8--8--||
--6-----6-----6-----6-----6-----6-----6-----6-----||
--------------------------------------------------||
--------------------------------------------------||
--------------------------------------------------||

Guitar 2:

                    PM                                   
--------------------------|--------------------------||
-----6--5--------6--5-----|-----6--5--6--8--6--5--6--||
--5--------5--5--------5--|--5-----------------------||
--------------------------|--------------------------||
--------------------------|--------------------------||
--------------------------|--------------------------||


uh yeah I just kinda did something and it sounded similar to the song :P

try it out and tell me what you think
Related for Promise Promise tab