Song name
# A B C D E F G H I J K L M N O P Q R S T U V W X Y Z

You Me At Six - Noises tab

-------------------------------------------------------------------------------
			     You Me At Six - Noises
-------------------------------------------------------------------------------
Tabbed by: CraigyBaby
Email: craigy__@hotmail.co.uk             www.myspace.com/craigy__

Tuning:DADGBe


INTRO :
e|---------------------------------------------------------------------------|
B|---------------------------------------------------------------------------|
G|---------------------------------------------------------------------------|
D|-----7---6-----------4---7---6-------7---6-----------4---7-6-7h9-----------|
A|-4-4-4-4-4-4-4-7-4-4-4-4-4-4-4---0-0-0-0-0-0-0-7-0-0-0-0-0-0-0-------------|
D|-4-4-4-4-4-4-4-4-4-4-4-4-4-4-4---0-0-0-0-0-0-0-0-0-0-0-0-0-0-0-------------|
PM . .   .   . .   . .   .   .     . .   .   . .   . .   . 

e|---------------------------------------------------------------------------|
B|----------------------------------Gradually Bend 6's Downwards-------------|
G|------------------------------------->-<-----------------------------------|
D|-----7---6-----------4---7---6---7-6-6-6-6-6-6-6-7-7-7-7-7-7-7-------------|
A|-4-4-4-4-4-4-4-7-4-4-4-4-4-4-4---0-0-0-0-0-0-0-0-0-0-0-0-0-0-0-------------|
D|-4-4-4-4-4-4-4-4-4-4-4-4-4-4-4---0-0-0-0-0-0-0-0-0-0-0-0-0-0-0-------------|
PM . .   .   . .   . .   .   .     . . . . . . . . 


VERSE 1 : ( Where do you...)
e|---------------------------------------------------------------------------------|
B|---------------------------------------------------------------------------------|
G|---------9-9-9-9-9-9-9-9-9-9-9----------9-9-9-9-9-\11-11-11-11-11-11-11-11-------|
D|-4--4-4--x-x-x-x-x-x-x-x-x-x-x--4--4-4--x-x-x-x-x---x--x--x--x--x--x--x--x-------|
A|-4--4-4--7-7-7-7-7-7-7-7-7-7-7--4--4-4--7-7-7-7-7-\-9--9--9--9--9--9--9--9-------|
D|-4--4-4-------------------------4--4-4-------------------------------------------|         
                                                                                              x4
e|---------------------------------------------------------------------------------|
B|---------------------------------------------------------------------------------|
G|---------6-6-6-6-6-6-6-6-6-6-6-----------4-4-4-4-4-4-4-4-4-4-4-------------------|
D|-0--0-0--x-x-x-x-x-x-x-x-x-x-x---0--0-0--x x-x-x-x-x-x-x-x-x-x-------------------|
A|-0--0-0--4-4-4-4-4-4-4-4-4-4-4---0--0-0--2-2-2-2-2-2-2-2-2-2-2-------------------|
D|-0--0-0--------------------------0--0-0------------------------------------------|


INTERLUDE :
e|------------------------------------------------------------------------------|
B|---------------------------------------------------------------14~------------|
G|---------------------11h12h14p11~-------------------11h12h14h11---------------|
D|---------4-4-4-------------------------4-4-4----------------------------------|
A|---------4-4-4-------------------------4-4-4----------------------------------|
D|---------4-4-4-------------------------4-4-4----------------------------------|
             ^                             ^
        Right Speaker                 Left Speaker


CHORUS : ( And even if...)
e|--------------------------------------------------------------|                     |------------|
B|--------------------------------------------------------------|                     |------------|
G|--------------------------------------------------------------|              On 4th |------------|
D|-4-4-4--4-4-4-4--4-4--4-4-4-4---0---0-0--0--0-0--0-0-0-0------|     x4       END ON |-2----0~----|
A|-4-4-4--4-4-4-4--4-4--4-4-4-4---0---0-0--0--0-0--0-0-0-0------|                     |-2----0~----|
D|-4-4-4--4-4-4-4--4-4--4-4-4-4---0---0-0--0--0-0--0-0-0-0------|                     |-2----0~----|

                               

			REPEAT VERSE


INTERLUDE 2 :
e|------------------------------------------------------------------------------|
B|---------------------------------------------------------------14~------------|
G|---------------------11h12h14p11~-------------------11h12h14h11---------------|
D|---------4-4-4-------------------------4-4-4----------------------------------|
A|---------4-4-4-------------------------4-4-4----------------------------------|
D|---------4-4-4-------------------------4-4-4----------------------------------|
             ^                             ^
        Left Speaker                 Right Speaker


			REPEAT CHORUS x 8


BREAKDOWN :
e|--------------------------------------------------------------------------------------------|
B|--------------------------------------------------------------------------------------------|
G|--------------------------------------------------------------------------------------------|
D|----------4-4-4-4---------------4-4-4-4--------------4-4-4-4----------------4-4-4-4---------|
A|----------4-4-4-4---------------4-4-4-4--------------4-4-4-4----------------4-4-4-4---------|
D|----------4-4-4-4---------------4-4-4-4--------------4-4-4-4----------------4-4-4-4---------|
	      ^                     ^                    ^                      ^
          Left Speaker	    Right Speaker        Left Speaker           Right Speaker


BREAKDOWN CONT. : (Liar...)
e|--------------------------------------------------------------------------|
B|-----------10~--------------10~--------------10~---------------10~--------|
G|------------x----------------x----------------x----------------x----------|
D|-0-0-0-0----7~----0-0-0-0----7~----0-0-0-0----7~----0-0-0-0----7~---------|
A|-0-0-0-0----------0-0-0-0----------0-0-0-0----------0-0-0-0---------------|
D|-0-0-0-0----------0-0-0-0----------0-0-0-0----------0-0-0-0---------------|
                                                                        REPEAT UNTILL FADE
e|--------------------------------------------------------------------------|
B|------------14~---------------14----------------14~---------------14~-----|
G|-------------x-----------------x-----------------x-----------------x------|
D|-4-4-4-4----11~----4-4-4-4----11~----4-4-4-4----11~----4-4-4-4----11~-----|
A|-4-4-4-4-----------4-4-4-4-----------4-4-4-4-----------4-4-4-4------------|
E|-4-4-4-4-----------4-4-4-4-----------4-4-4-4-----------4-4-4-4------------|



ENJOY.

Comments are welcome :)



| /  slide up
| \  slide down
| h  hammer-on
| p  pull-off
| ~  vibrato
| +  harmonic
| x  Mute note
===============================================================================
Tap to rate this tab
# A B C D E F G H I J K L M N O P Q R S T U V W X Y Z