Song name
# A B C D E F G H I J K L M N O P Q R S T U V W X Y Z

You Me At Six - Tigers And Sharks tab

Tigers and Sharks- You Me At Six

Tabbed by: Robbie and Euan (the duo of epic proportions)
Email: peanut_merchant@hotmail.co.uk

Tuning: Standard

e|---------------------------------------------------------------------------|
B|------------------7----------------------- 7-8-7---------------------------|
G|------7p-0---------0---------7p0-----------0-0-0---------------------------|
D|------------7p-0---0---------------7p0-----0-0-0---------------------------|
A|-5s7--------------------5s7------------------------------------------------|
E|---------------------------------------------------------------------------|

e|---------------------------------------------------------------------------|
B|------4p0--2----0-----------4p0--2----0------------------------------------|
G|----------------4---------------------4------------------------------------|
D|----------------0---------------------0------------------------------------|
A|-3s5------------5------3s5------------5------------------------------------|
E|---------------------------------------------------------------------------|
Tap to rate this tab
# A B C D E F G H I J K L M N O P Q R S T U V W X Y Z