Song name
# A B C D E F G H I J K L M N O P Q R S T U V W X Y Z

You Me At Six - Blue Eyes Dont Lie tab

Help us improve GuitareTab! Take a short survey!
----------------------------------------------------------------------------
           You Me At Six - Blue Eyes Don't Lie
---------------------------------------------------------------------------
Song: Blue Eyes Don't Lie
Artist: You Me At Six
Album: Jealous Minds Think Alike - Single

Tuning: Drop D

e|---------------------------------------------------------------|
B|---------------------------------------------------------------|
G|-7-\-5-\-4-/-5--------------7-\-5-\-4-/-5----------------------|
D|-X-\-X-\-X-/-X--3-3-3--3-3--X-\-X-\-X-/-X---3-3-3--5-5---------|
A|-5-\-3-\-2-/-3--3-3-3--3-3--5-\-3-\-2-/-3---3-3-3--5-5---------|
D|---------------3-3-3--3-3------------------3-3-3--5-5----------|

e|--------------------------------------------------------------------------|
B|--------------------------------------------------------------------------|
G|-7-\-5-\-4-/-5---------------9-9-9-9-9-9-9-9-12-12-12-12-12-12-12-12------|
D|-X-\-X-\-X-/-X--3-3-3--3-3---X-X-X-X-X-X-X-X-X--X--X--X--X--X--X--X-------|
A|-5-\-3-\-2-/-3--3-3-3--3-3---7-7-7-7-7-7-7-7-10-10-10-10-10-10-10-10------|
D|---------------3-3-3--3-3-------------------------------------------------|
Related for Blue Eyes Dont Lie tab