Song name
# A B C D E F G H I J K L M N O P Q R S T U V W X Y Z

You Me At Six - The Truth Is A Terrible Thing tab

-------------------------------------------------------------------------------
			     The Truth Is A Terrible Thing (intro) - You Me At Six
-------------------------------------------------------------------------------
Tabbed by: cannibal_freak1
Email: ditto_ditto_3@hotmail.com

Tuning: Drop D

I know Ultimate-Guitar doesn't care too much for intros
But I thought I'd post what I've got so far. More to come soon :)


  Q=180
  Gtr I
     PM--------------------|            PM--------------------|
  Q  E E E E E E   E E E E E E E E   Q  E E E E E E   E E E E E E E E
|----------------|-----------------|----------------|-----------------|
|----------------|-----------------|----------------|-----------------|
|----------------|-----------------|----------------|-----------------|
|----------4---2-|-------7---2-4-2-|----------4---2-|-------7---2-4-2-|
|-0----5---------|---4-------------|-0----5---------|---4-------------|
|-0--0---0---0---|-0---0---0-------|-0--0---0---0---|-0---0---0-------|


  Q=170
  Gtr I
     PM----------------|
  Q  E E E E E E   E E E E E E E E   Q  E E E E E E   Q  E E E E E E
|----------------|-----------------|----------------|----------------|
|----------------|-----------------|----------------|----------------|
|----------------|-----------------|----------------|----------------|
|----------------|-----------------|----------------|----------------|
|-5----5---4---5-|---4---5---4-5-4-|-4----5-5-5-5-5-|-5----5-5-5-5-5-|
|-5--5---5---5---|-5---5---5-------|-4--4-----------|-5--5-----------|


    Q=170
   4/4
    Gtr I
        PM---------------------------|               PM------------------------|
     Q  E  E  E  E  E  E  E  E  E  E  E  E  E  E  Q  E  E  E  E  E  E E E E  E  E  E E E
||------------------------------------------------------------------------------------------|
||o-----------------------------------------------------------------------------------------|
||------------------------------------------------------------------------------------------|
||---------------4-----2-----------7-----2--4--2--------------4-----2--------7-----2-4-2----|
||o--0-----5-----------------4--------------------0-----5---------------4-------------------|
||---0--0-----0-----0-----0-----0-----0-----------0--0-----0-----0----0---0-----0-----------|
|
|   Gtr I
|    Q  E  E  E  E  E  E  E  E  E  E  E  E  E  E  Q  E  E  E  E  E  E Q E E  Q  E  E
||------------------------------------------------------------------------------------------|
||o-----------------------------------------------------------------------------------------|
||--14-14-14-14-14-14-14-14-14-14-14-14-14-14-14-11-11-11-11-11-11-11-9-9-9-11-11-11--------|
||------------------------------------------------------------------------------------------|
||o-12-12-12-12-12-12-12-12-12-12-12-12-12-12-12--9--9--9--9--9--9--9-7-7-7--9--9--9--------|
||------------------------------------------------------------------------------------------|


       PM---------------------|
   Q   E  E  E  E  E  E  E  E  E  E  E  E  E  E  Q     E  E  E  E  E E Q    E  E  E E E E
|---------------------------------------------------------------------------------------------||
|--------------------------------------------------------------------------------------------o||
|---------------------------------------------------------------------------------------------||
|---------------------------------------------------------------------------------------------||
|--5------5-----4-----5-----4-----5-----4--5--4--4--------5--5--5--5-5-5-------5--5-5-5-5----o||
|--5---5-----5-----5-----5-----5-----5-----------4-----4---------------5----5-----------------||
|
|  Q   E  E  E  E  E  E  E  E  E  E  E  E  E  E  Q  E  E  E  E  E  E Q E E  Q  E  E
|---------------------------------------------------------------------------------------------||
|--------------------------------------------------------------------------------------------o||
|-14--14-14-14-14-14-14-14-14-14-14-14-16-16-16-11-11-11-11-11-11-11-9-9-9-11-11-11-----------||
|---------------------------------------------------------------------------------------------||
|-12--12-12-12-12-12-12-12-12-12-12-12-14-14-14--9--9--9--9--9--9--9-7-7-7--9--9--9----------o||
|---------------------------------------------------------------------------------------------||


  Q=170
  Gtr I
  Q  E  E E  E E E E  E E  E E  E Q Q  E
|------------------------------------------------------------------------|
|------------------------------------------------------------------------|
|------------------------------------------------------------------------|
|-0--0------------------------------0--0---------------------------------|
|-0--0------------------------------0--0---------------------------------|
|-0--0------------------------------0--0---------------------------------|
|
| Gtr I
| Q  E  E E  E E E E  E E  E E  E Q Q  E  E E  E E E E  E E  E E  E Q
|------------------------------------------------------------------------|
|------------------------------------------------------------------------|
|------11---11-9-----11---11---11-9------11---11-9-----11---11---11-9----|
|------------------------------------------------------------------------|
|-------9----9-7------9----9----9-7-------9----9-7------9----9----9-7----|
|------------------------------------------------------------------------|


  Q  E  E E  E E E E  E E  E E  E Q    Q  E  E  E  E  E  E E E E E E E E E
|-----------------------------------------------------------------------------|
|-----------------------------------------------------------------------------|
|------12---12-9-----12---12---12-9---14-14-14-14-14-14-14-9-9-9-9-9-9-9-9----|
|-----------------------------------------------------------------------------|
|------10---10-7-----10---10---10-7---12-12-12-12-12-12-12-7-7-7-7-7-7-7-7----|
|-----------------------------------------------------------------------------|
|
| Q  E  E E  E E E E  E E  E E  E E E  Q  E  E  E  E  E  E E E E E E E E E
|-----------------------------------------------------------------------------|
|-----------------------------------------------------------------------------|
|-----------------------------------------------------------------------------|
|-5--5-----------------------------------------------------7-7-7-7-7-7-7-7----|
|-5--5---------------------------------4--4--4--4--4--4--4-7-7-7-7-7-7-7-7----|
|-5--5---------------------------------4--4--4--4--4--4--4-7-7-7-7-7-7-7-7----|




| /  slide up
| \  slide down
| h  hammer-on
| p  pull-off
| ~  vibrato
| +  harmonic
| x  Mute note
===============================================================================
Tap to rate this tab
# A B C D E F G H I J K L M N O P Q R S T U V W X Y Z