Song name
# A B C D E F G H I J K L M N O P Q R S T U V W X Y Z

You Me At Six - Sweet Feet tab

-------------------------------------------------------------------------------
			     Sweet Feet - You Me At Six
-------------------------------------------------------------------------------
Tabbed by: alex_g_12@hotmail.com
Email:alex_g_12@hotmail.com


Tuning:Drop D
Intro
e|---------------------------------------------------------------------------------------|
B|---------------------------------------------------------------------------------------|
G|---8-9-9------8-9-9-11--11--11-9-------------------------------------------------------|
D|---------------------------------------------------------------------------------------|
A|---6-7-7------6-7-7-9---9---9--7-------------------------------------------------------|
E|---------------------------------------------------------------------------------------|

e|----------------------------------------------|
B|----------------------------------------------|
G|---8-9-9---8-9-9-9-9--8-9-9--11-111111-9-9-9--|
D|----------------------------------------------|
A|---6-7-7---6-7-7-7-7--6-7-7--9--9-9-9--7-7-7--|
E|----------------------------------------------|

e|----------------------------------------------|
B|----------------------------------------------|
G|---8-9-9---8-9-9-9-9--8-9-9-11-11-11-11-44-4--|
D|----------------------------------------------|
A|---6-7-7---6-7-7-7-7--6-7-7--9--9-9-9--2-2-2--|
E|----------------------------------------------|

Verse (Lead)
e|--------------------------------------------------------------------------------------|
B|--9----7-----7------------------------------------------------------------------------|
G|----9----9-----9----8-9---8-9-11------------------------------------------------------|
D|-----------9-----9------9-------------------------------------------------------------|
A|--------------------------------------------------------------------------------------|
E|--------------------------------------------------------------------------------------|

e|----------------------------------------|
B|------7-----9-----10------10-----10-10--|
G|--9-9-9-9-9-9-9-9-9--9-9--9--9-9-9---9--|
D|----------------------------------------|
A|----------------------------------------|
E|----------------------------------------|

e|----------------------------------------|
B|------7-----9-----10------10-----10-10--|
G|--9-9-9-9-9-9-9-9-9--9-9--9--9-9-9---9--|
D|----------------------------------------|
A|----------------------------------------|
E|----------------------------------------|
    x x   x x   x x    x x     x x
e|----------------------------------------|
B|------7-----9-----10------10-----10-10--|
G|--9-9-9-9-9-9-9-9-9--9-9--9--9-9-9---9--|
D|----------------------------------------|
A|----------------------------------------|
E|----------------------------------------|
    x x   x x   x x    x x     x x
    x x   x x   x x    x x     x x
e|----------------------------------------------|
B|-------5-5-5-5-5-5-5-5-5-7-7-7-7-7-7-7-7-7-7--|
G|----------------------------------------------|
D|----------------------------------------------|
A|----------------------------------------------|
E|----------------------------------------------|

 Love is for the blind
e|---------------------------------------------------------------------------------|
B|---------------------------------------------------------------------------------|
G|-----6----4----------------------------------------------------------------------|
D|-----6----4---7----9-------------------------------------------------------------|
A|-----4----2---7----9-------------------------------------------------------------|
E|--------------7----9-------------------------------------------------------------|

Hate To say i told you so
e|---------------------------------------------------------------------------------|
B|---------------------------------------------------------------------------------|
G|------9--------------------------------------------------------------------------|
D|------9------6-------7---------9-------------------------------------------------|
A|------7------6-------7---------9-------------------------------------------------|
E|-------------6-------7---------9-------------------------------------------------|

2nd verse
e|----------------------------------------------------------------------------------|
B|----------------------------------------------------------------------------------|
G|----9---4-----------6----4--------------------------------------------------------|
D|----9---4-----7-----6----4--------------------------------------------------------|
A|----7---2-----7-----4----2--------------------------------------------------------|
E|--------------7-------------------------------------------------------------------|
   PALM MUTED xxxxxxxxxxxxxxxxxxxxxxxxxxxxxxxxxxxxxxxxxxxxxxx
 Love is for the blind
e|---------------------------------------------------------------------------------|
B|---------------------------------------------------------------------------------|
G|-----6----4----------------------------------------------------------------------|
D|-----6----4---7----9-------------------------------------------------------------|
A|-----4----2---7----9-------------------------------------------------------------|
E|--------------7----9-------------------------------------------------------------|

Hate To say i told you so
e|---------------------------------------------------------------------------------|
B|---------------------------------------------------------------------------------|
G|------9--------------------------------------------------------------------------|
D|------9------6-------7---------9-------------------------------------------------|
A|------7------6-------7---------9-------------------------------------------------|
E|-------------6-------7---------9-------------------------------------------------|

You know this is how it goes
e|---------------------------------------------------------------------------------|
B|---------------------------------------------------------------------------------|
G|---6--------9--------------------------------------------------------------------|
D|---6---7----9---9----------------------------------------------------------------|
A|---4---7----7---9----------------------------------------------------------------|
E|-------7--------9----------------------------------------------------------------|

its i told you soo......
e|---------------------------------------------------------------------------------|
B|---------------------------------------------------------------------------------|
G|------9--------------------------------------------------------------------------|
D|------9------6-------7---------9-------------------------------------------------|
A|------7------6-------7---------9-------------------------------------------------|
E|-------------6-------7---------9-------------------------------------------------|
   PALM MUTE xxxxxxxxxxxxxxxxxxxxx
i hate to say i told you so
e|---------------------------------------------------------------------------------|
B|---------------------------------------------------------------------------------|
G|------9--------------------------------------------------------------------------|
D|------9------6-------7---------9-------------------------------------------------|
A|------7------6-------7---------9-------------------------------------------------|
E|-------------6-------7---------9-------------------------------------------------|

e|------------------------------------------------------------------------------|
B|------------------------------------------------------------------------------|
G|---9--------------------------------------------------------------------------|
D|---9--------------------------------------------------------------------------|
A|---7--------------------------------------------------------------------------|
E|------------------------------------------------------------------------------|


| /  slide up
| \  slide down
| h  hammer-on
| p  pull-off
| ~  vibrato
| +  harmonic
| x  Mute note
===============================================================================
Tap to rate this tab
# A B C D E F G H I J K L M N O P Q R S T U V W X Y Z