Song name
# A B C D E F G H I J K L M N O P Q R S T U V W X Y Z

You Me At Six - Take Off Your Colours tab

Help us improve GuitareTab! Take a short survey!
-------------------------------------------------------------------------------
			     Take Off Your Colours - You Me At Six
-------------------------------------------------------------------------------
Tabbed by: Alex
Email: alex_g_12@hotmail.com

Ive made it pretty confusing but if you start by playing it along with the song, 
you will understand

Tuning:Drop D
Intro
e|--------------------------------------------------------------------------------|
B|--------------------------------------------------------------------------------|
G|--6-----6-----8-----------------------------------------------------------------|
D|--6-----6-----6-----------------------------------------------------------------|
A|--4-----4-----6-----------------------------------------------------------------|
D|--4-----------6-----------------------------------------------------------------| x2

e|---------------4---------------------------------------------------------------|
B|-------------------------------------------------------------------------------|
G|-----------------6-------------------------------------------------------------|
D|----4--------------6-----------------------------------------------------------|
A|----4--------------------------------------------------------------------------|
E|----4--------------------------------------------------------------------------|

e|--------------------------------------------------------------------------------|
B|--------------------------------------------------------------------------------|
G|-----------6--------------------------------------------------------------------|
D|----4------6------6-------------------------------------------------------------|
A|----4------4------6-------------------------------------------------------------|
E|----4-------------6-------------------------------------------------------------|

e|---------------------------------------------------------------------------------|
B|-------------------------------x1------------------------------------------------|
G|----3---------------x13----------------------------------------------------------|
D|----3-------6-----4--------3-----------------------------------------------------|
A|----1x-13-- 6-x1--4--------3-----------------------------------------------------|
E|------------6-----4--------3-----------------------------------------------------|

e|--------------------------------------------------------------------------------------|
B|--------------------------------------------------------------------------------------|
G|-------------x1---x9----x1------------------------------------------------------------|
D|-----6x13--3----4-----3-----4--6------------------------------------------------------|
A|-----6-----3----4-----3-----4--6------------------------------------------------------|
E|-----6-----3----4-----3-----4--6------------------------------------------------------|

e|--------------------------------------------------------------------------------|
B|--------------------------------------------------------------------------------|
G|-----------6--------------------------------------------------------------------|
D|----4------6------6-------------------------------------------------------------|
A|----4------4------6-------------------------------------------------------------|
E|----4-------------6-------------------------------------------------------------|

e|---------------------------------------------------------------------------------|
B|-------------------------------x1------------------------------------------------|
G|----3---------------x13----------------------------------------------------------|
D|----3-------6-----4--------3-----------------------------------------------------|
A|----1x-13-- 6-x1--4--------3-----------------------------------------------------|
E|------------6-----4--------3-----------------------------------------------------|

e|-------------------------------------------------------------------------------|
B|-------------------------------------------------------------------------------|
G|-----------x1------------------------------------------------------------------|
D|-----1x13-3--4---6-----4-------------------------------------------------------|
A|-----1----3--4---6-----4-------------------------------------------------------|
E|-----1----3--4---6-----4-------------------------------------------------------|

e|--------------------------------------------------------------------------------|
B|--------------------------------------------------------------------------------|
G|-----------6--------------------------------------------------------------------|
D|----4------6------6-------------------------------------------------------------|
A|----4------4------6-------------------------------------------------------------|
E|----4-------------6-------------------------------------------------------------|

e|---------------------------------------------------------------------------------|
B|-------------------------------x1------------------------------------------------|
G|----3---------------x13----------------------------------------------------------|
D|----3-------6-----4--------3-----------------------------------------------------|
A|----1x-13-- 6-x1--4--------3-----------------------------------------------------|
E|------------6-----4--------3-----------------------------------------------------|

e|-------------------------------------------------------------------------------|
B|-------------------------------------------------------------------------------|
G|-----------x1------------------------------------------------------------------|
D|-----1x13-3--4---6-----4-------------------------------------------------------|
A|-----1----3--4---6-----4-------------------------------------------------------|
E|-----1----3--4---6-----4-------------------------------------------------------|

| /  slide up
| \  slide down
| h  hammer-on
| p  pull-off
| ~  vibrato
| +  harmonic
| x  Mute note
===============================================================================
Related for Take Off Your Colours tab