Song name
# A B C D E F G H I J K L M N O P Q R S T U V W X Y Z

You Me At Six - Poker Face tab

Intro
e|------------|
B|------------|
G|------------|  x3
D|--4-4-4-6\--|
A|--4-4-4-6\--|
D|--4-4-4-6\--|


Verse 
e|-----------------------------------|
B|-----------------------------------|
G|-----------------------------------|  x6
D|--6-6-------------6-6--------------|
A|----------6-6-------------9-9------|
D|------6-6-----6-6-----6-6-----6-6--|
PM      ● ●     ● ●     ● ●     ● ●


e|------------------------------------------------------|
B|------------------------------------------------------|
G|-------------------------------8-7-------8-7-8-7------|  x2
D|------------------------------------9-6------------6--|
A|-----6p5-------6p5-6p5---------------------------9----|
D|--6~------9-6----------4h6----------------------------|


Chorus
e|-------------------------------------------------------------------|
B|-------------------------------------------------------------------|
G|----------------------------------4-4-4-4-4-4-4-4------------------|  x2
D|--6-6-6-6-6-6-6-6-2-2-2-2-2-2-2-2-4-4-4-4-4-4-4-4-8-8-8-8-8-8-8-8--|
A|--6-6-6-6-6-6-6-6-2-2-2-2-2-2-2-2-2-2-2-2-2-2-2-2-4-4-4-4-4-4-4-4--|
D|--6-6-6-6-6-6-6-6-2-2-2-2-2-2-2-2-----------------4-4-4-4-4-4-4-4--|

e|------------|
B|------------|
G|------------|
D|--4-4-4-6\--|
A|--4-4-4-6\--|
D|--4-4-4-6\--|


Verse 
e|-----------------------------------|
B|-----------------------------------|
G|-----------------------------------|  x6
D|--6-6-------------6-6--------------|
A|----------6-6-------------9-9------|
D|------6-6-----6-6-----6-6-----6-6--|
PM      ● ●     ● ●     ● ●     ● ●


e|------------------------------------------------------|
B|------------------------------------------------------|
G|-------------------------------8p7-------8p7-8p7------|
D|------------------------------------9-6------------6--|
A|-----6p5-------6p5-6p5---------------------------9----|
D|--6~------9-6----------4h6----------------------------|


Chorus
e|-------------------------------------------------------------------|
B|-------------------------------------------------------------------|
G|----------------------------------4-4-4-4-4-4-4-4------------------|  x6
D|--6-6-6-6-6-6-6-6-2-2-2-2-2-2-2-2-4-4-4-4-4-4-4-4-8-8-8-8-8-8-8-8--|
A|--6-6-6-6-6-6-6-6-2-2-2-2-2-2-2-2-2-2-2-2-2-2-2-2-4-4-4-4-4-4-4-4--|
D|--6-6-6-6-6-6-6-6-2-2-2-2-2-2-2-2-----------------4-4-4-4-4-4-4-4--|


Bridge
e|-------------------------------------|
B|-------------------------------------|
G|--------8-7-7-----------8-7-8-7------|  x8
D|--6-6-6-------9-9-6-6-6-----------6--|
A|--------------------------------9----|
D|-------------------------------------|
PM  ● ● ● ● ● ● ● ● ● ● ● ● ● ● ● ● ●


Chorus
e|-------------------------------------------------------------------|
B|-------------------------------------------------------------------|
G|----------------------------------4-4-4-4-4-4-4-4------------------|
D|----------------------------------4-4-4-4-4-4-4-4-8-8-8-8-8-8-8-8--|
A|----------------------------------2-2-2-2-2-2-2-2-4-4-4-4-4-4-4-4--|
D|--------------------------------------------------4-4-4-4-4-4-4-4--|

e|-------------------------------------------------------------------|
B|-------------------------------------------------------------------|
G|----------------------------------4-4-4-4-4-4-4-4------------------|  x4
D|--6-6-6-6-6-6-6-6-2-2-2-2-2-2-2-2-4-4-4-4-4-4-4-4-8-8-8-8-8-8-8-8--|
A|--6-6-6-6-6-6-6-6-2-2-2-2-2-2-2-2-2-2-2-2-2-2-2-2-4-4-4-4-4-4-4-4--|
D|--6-6-6-6-6-6-6-6-2-2-2-2-2-2-2-2-----------------4-4-4-4-4-4-4-4--|


Outro
e|--------------------------------|
B|--------------------------------|
G|--------------------------------|
D|---------------------------6-\--|
A|-----6-5-------6-5-6-5-----6-\--|
D|--6-------9-6----------4---6-\--|
Tap to rate this tab
# A B C D E F G H I J K L M N O P Q R S T U V W X Y Z