Song name
# A B C D E F G H I J K L M N O P Q R S T U V W X Y Z

You Me At Six - Always Attract tab

This is near enough the full correct version of the song,
99.999% correct i have spent months on figuring
out this song and spending the time and effort
to come up with different versions and listening
to them to find the most accurate and easy version.

Artist - You Me At Six

Album - Take Off Your Colours

Song - Always Attract

Tuning - Standard

Difficulty - Intermediate

Tabbing Difficulty - Intermediate

Contact Email For Help - cheesenachos@hotmail.co.uk

Order:
Intro x3
Pre-Chorus
Chorus
Verse 1 x3
Pre-Chorus
Chorus
Verse 2
Outro

Key:(used in song only)
---#p#--- Pull off
|___| any note within that area going up is palm muted
eg:
E|---------------------------x-x-x-x---x-x-x-x-x-x-x-x-------------------|
B|-----------------3---------x-x-x-x---x-x-x-x-x-x-x-x-------------------|
G|-----------------0---------x-x-x-x---x-x-x-x-x-x-x-x-------------------|
D|---------------------------5-5-5-5---5-5-5-5-5-5-5-5-------------------|
A|---------------------------5-5-5-5---5-5-5-5-5-5-5-5-------------------|
e|-3-3-3-3-3-3-3-3---3-3-3-3-3-3-3-3---3-3-3-3-3-3-3-3-------------------|
   |______________|  |_____|


Intro/Verse 1:
E|-------------------------------------7----------7----------------------|
B|---------8-----------7-----------8-------8----------8------------------|
G|-----0-----------0-----------0---------------0-------------------------|
D|-0-----------0-----------0---------------------------------------------|
A|-----------------------------------------------------------------------|
e|-----------------------------------------------------------------------|

E|------------------------------------7----------7-----------------------|
B|---------8----------7-----------8--------8-----------------------------|
G|-----0----------0-----------0----------------0-----0-------------------|
D|-0----------0-----------0----------------------------------------------|
A|-----------------------------------------------------------------------|
e|-----------------------------------------------------------------------|

E|------------------------------------------------------------------------|
B|-----8------7------8---7-----8---------8-----7-----8-----7-----8--------|
G|------------------------------------------------------------------------|
D|------------------------------------------------------------------------|
A|-7-7---7-7---7-7---7-7---7-7---7---9-9---9-9---9-9---9-9---9-9---9------|
e|------------------------------------------------------------------------|

Pre-Chorus:
E|-----------------------------------------------------------------------|
B|-----5-----5-----5-----5-----5-------7-----7-----7-----7-----7---------|
G|-----------------------------------------------------------------------|
D|-----------------------------------------------------------------------|
A|-3-3---3-3---3-3---3-3---3-3---3-5-5---5-5---5-5---5-5---5-5---5-------|
e|-----------------------------------------------------------------------|

E|-----------------------------------------------------------------------|
B|-----7-----8-----10-----8-----7-------12-----10-----8------7-----8-----|
G|-----------------------------------------------------------------------|
D|-----------------------------------------------------------------------|
A|-7-7---7-7---7-7----7-7---7-7---7-9-9----9-9----9-9----9-9---9-9---9---|
e|-----------------------------------------------------------------------|

E|-----------------------------------------------------------------------|
B|-----5-----5-----5-----5-----5-------7-----7-----7-----7-----7---------|
G|-----------------------------------------------------------------------|
D|-----------------------------------------------------------------------|
A|-3-3---3-3---3-3---3-3---3-3---3-5-5---5-5---5-5---5-5---5-5---5-------|
e|-----------------------------------------------------------------------|

E|-----------------------------------------------------------------------|
B|-----7-----8-----10-----8-----7-------12-----12-----12-----12----12----|
G|-----------------------------------------------------------------------|
D|-----------------------------------------------------------------------|
A|-7-7---7-7---7-7----7-7---7-7---7-9-9----9-9----9-9----9-9---9-9---9---|
e|-----------------------------------------------------------------------|

Chorus:
E|------------------------------------3----------------------------------|
B|----3-0------7-8-----3p0-0----7-8---3----------------------------------|
G|------------------------------------0----------------------------------|
D|------------------------------------2----------------------------------|
A|------------------------------------3----------------------------------|
e|--3-------7--------3--------7-------x----------------------------------|

Verse:
E|-----------------------------------------------------------------------|
B|-----------------3-----------------3-----------------3-----------------|
G|-----------------0-----------------0-----------------0-----------------|
D|-2-2-2-2-2-2-2-2---2-2-2-2-2-2-2-2---0-0-0-0-0-0-0-0-------------------|
A|-----------------------------------------------------------------------|
e|-----------------------------------------------------------------------|
   |______________|  |______________|  |______________|

E|-----------------------------------------------------------------------|
B|-----------------3-----------------3-----------------3-----------------|
G|-----------------0-----------------0-----------------0-----------------|
D|-0-0-0-0-0-0-0-0-------------------------------------------------------|
A|-------------------3-3-3-3-3-3-3-3---3-3-3-3-3-3-3-3-------------------|
e|-----------------------------------------------------------------------|
   |______________|  |______________|  |________________|

E|-----------------------------------------------------------------------|
B|-----------------3-----------------------------------------------------|
G|-----------------0-----------------------------------------------------|
D|-----------------------------------------------------------------------|
A|-----------------------------------------------------------------------|
e|-3-3-3-3-3-3-3-3---3-3-3-3-3-3-3-3-------------------------------------|
   |______________|  |______________|

E|-----------------------------------------------------------------------|
B|-----------------3-----------------3-----------------3-----------------|
G|-----------------0-----------------0-----------------0-----------------|
D|-2-2-2-2-2-2-2-2---2-2-2-2-2-2-2-2---0-0-0-0-0-0-0-0-------------------|
A|-----------------------------------------------------------------------|
e|-----------------------------------------------------------------------|
   |______________|  |______________|  |______________|

E|-----------------------------------------------------------------------|
B|-----------------3-----------------3-----------------3-----------------|
G|-----------------0-----------------0-----------------0-----------------|
D|-0-0-0-0-0-0-0-0-------------------------------------------------------|
A|-------------------3-3-3-3-3-3-3-3---3-3-3-3-3-3-3-3-------------------|
e|-----------------------------------------------------------------------|
   |______________|  |______________|  |________________|

E|---------------------------x-x-x-x---x-x-x-x-x-x-x-x-------------------|
B|-----------------3---------x-x-x-x---x-x-x-x-x-x-x-x-------------------|
G|-----------------0---------x-x-x-x---x-x-x-x-x-x-x-x-------------------|
D|---------------------------5-5-5-5---5-5-5-5-5-5-5-5-------------------|
A|---------------------------5-5-5-5---5-5-5-5-5-5-5-5-------------------|
e|-3-3-3-3-3-3-3-3---3-3-3-3-3-3-3-3---3-3-3-3-3-3-3-3-------------------|
   |______________|  |______|

Outro:
E|-x-x-x-x-x-x-x-x---x-x-x-x-x-x-x-x---x-x-x-x-x-x-x-x---x-x-x-x-x-x-x-x--|
B|-x-x-x-x-x-x-x-x---x-x-x-x-x-x-x-x---x-x-x-x-x-x-x-x---x-x-x-x-x-x-x-x--|
G|-5-5-5-5-5-5-5-5---5-5-5-5-5-5-5-5---7-7-7-7-7-7-7-7---7-7-7-7-7-7-7-7--|
D|-5-5-5-5-5-5-5-5---5-5-5-5-5-5-5-5---7-7-7-7-7-7-7-7---7-7-7-7-7-7-7-7--|
A|-3-3-3-3-3-3-3-3---3-3-3-3-3-3-3-3---5-5-5-5-5-5-5-5---5-5-5-5-5-5-5-5--|
e|-x-x-x-x-x-x-x-x---x-x-x-x-x-x-x-x---x-x-x-x-x-x-x-x---x-x-x-x-x-x-x-x--|

E|-x-x-x-x-x-x-x-x---x-x-x-x-x-x-x-x---x-x-x-x-x-x-x-x---x-x-x-x-x-x-x-x--|
B|-x-x-x-x-x-x-x-x---x-x-x-x-x-x-x-x---x-x-x-x-x-x-x-x---x-x-x-x-x-x-x-x--|
G|-x-x-x-x-x-x-x-x---x-x-x-x-x-x-x-x---x-x-x-x-x-x-x-x---x-x-x-x-x-x-x-x--|
D|-7-7-7-7-7-7-7-7---7-7-7-7-7-7-7-7---5-5-5-5-5-5-5-5---5-5-5-5-5-5-5-5--|
A|-7-7-7-7-7-7-7-7---7-7-7-7-7-7-7-7---5-5-5-5-5-5-5-5---5-5-5-5-5-5-5-5--|
e|-5-5-5-5-5-5-5-5---5-5-5-5-5-5-5-5---3-3-3-3-3-3-3-3---3-3-3-3-3-3-3-3--|

E|-x-x-x-x-x-x-x-x---x-x-x-x-x-x-x-x---x-x-x-x-x-x-x-x---x-x-x-x-x-x-x-x--|
B|-x-x-x-x-x-x-x-x---x-x-x-x-x-x-x-x---x-x-x-x-x-x-x-x---x-x-x-x-x-x-x-x--|
G|-5-5-5-5-5-5-5-5---5-5-5-5-5-5-5-5---7-7-7-7-7-7-7-7---7-7-7-7-7-7-7-7--|
D|-5-5-5-5-5-5-5-5---5-5-5-5-5-5-5-5---7-7-7-7-7-7-7-7---7-7-7-7-7-7-7-7--|
A|-3-3-3-3-3-3-3-3---3-3-3-3-3-3-3-3---5-5-5-5-5-5-5-5---5-5-5-5-5-5-5-5--|
e|-x-x-x-x-x-x-x-x---x-x-x-x-x-x-x-x---x-x-x-x-x-x-x-x---x-x-x-x-x-x-x-x--|

E|-x-x-x-x-x-x-x-x---x-x-x-x-x-x-x-x---x-x-x-x-x-x-x-x---x-x-x-x-x-x-x-x--|
B|-x-x-x-x-x-x-x-x---x-x-x-x-x-x-x-x---x-x-x-x-x-x-x-x---x-x-x-x-x-x-x-x--|
G|-x-x-x-x-x-x-x-x---x-x-x-x-x-x-x-x---x-x-x-x-x-x-x-x---x-x-x-x-x-x-x-x--|
D|-7-7-7-7-7-7-7-7---7-7-7-7-7-7-7-7---5-5-5-5-5-5-5-5---5-5-5-5-5-5-5-5--|
A|-7-7-7-7-7-7-7-7---7-7-7-7-7-7-7-7---5-5-5-5-5-5-5-5---5-5-5-5-5-5-5-5--|
e|-5-5-5-5-5-5-5-5---5-5-5-5-5-5-5-5---3-3-3-3-3-3-3-3---3-3-3-3-3-3-3-3--|

E|-----x-x-x-x-x-x---x-x-x-x-x-x-x-x---x-x-x-x-x-x-x-x---x-x-x-x-x-x-x-x--|
B|-----x-x-x-x-x-x---x-x-x-x-x-x-x-x---x-x-x-x-x-x-x-x---x-x-x-x-x-x-x-x--|
G|-----5-5-5-5-5-5---5-5-5-5-5-5-5-5---7-7-7-7-7-7-7-7---7-7-7-7-7-7-7-7--|
D|-----5-5-5-5-5-5---5-5-5-5-5-5-5-5---7-7-7-7-7-7-7-7---7-7-7-7-7-7-7-7--|
A|-----3-3-3-3-3-3---3-3-3-3-3-3-3-3---5-5-5-5-5-5-5-5---5-5-5-5-5-5-5-5--|
e|-----x-x-x-x-x-x---x-x-x-x-x-x-x-x---x-x-x-x-x-x-x-x---x-x-x-x-x-x-x-x--|

E|-x-x-x-x-x-x-x-x---x-x-x-x-x-x-x-x---x-x-x-x-x-x-x-x---x-x-x-x-x-x-x-x--|
B|-x-x-x-x-x-x-x-x---x-x-x-x-x-x-x-x---x-x-x-x-x-x-x-x---x-x-x-x-x-x-x-x--|
G|-x-x-x-x-x-x-x-x---x-x-x-x-x-x-x-x---x-x-x-x-x-x-x-x---x-x-x-x-x-x-x-x--|
D|-7-7-7-7-7-7-7-7---7-7-7-7-7-7-7-7---5-5-5-5-5-5-5-5---5-5-5-5-5-5-5-5--|
A|-7-7-7-7-7-7-7-7---7-7-7-7-7-7-7-7---5-5-5-5-5-5-5-5---5-5-5-5-5-5-5-5--|
e|-5-5-5-5-5-5-5-5---5-5-5-5-5-5-5-5---3-3-3-3-3-3-3-3---3-3-3-3-3-3-3-3--|

Lyrics:
If it hurts this much,
then it much be love,
and its a lottery,
i can't wait to draw your name.
Ph i'm trying to get to you,
but time isn't on my side,
the truths the worst i could do,
and i guess that i have lied.

Keeping me awake,
it's been like this now for days,
my heart is out at sea,
my head all over the place,
i'm loosing sence of time,
and everything tastes the same,
i'll be home in a day,
i fear thats a month to late.

That night i slept,
on your side of the bed so,
it was ready when you got home,
we're like noughts and crosses in that,
opposites always attract.

You've taken me to the top,
and let me fall back south
you've had me at the top of the pile,
and then had me kissing the ground.
We've heard and seen it all,
no ones talked us out,
the problems that have come,
haven't yet torn us down.

Am I keeping you awake,
if i am then just say,
you can make your own decisions;
you can make your own mistakes,
i'll live and let die all the promises you made,
but if you lie another time,
it'll be a lie thats to late.

You always have your way,
for now it to soon for you to say,
we will be always, always.
Tap to rate this tab
# A B C D E F G H I J K L M N O P Q R S T U V W X Y Z