Song name
# A B C D E F G H I J K L M N O P Q R S T U V W X Y Z

You Me At Six - Save It For The Bedroom tab

Song:Save It For The Bedroom
Artist: You Me At Six
Album: Take Off Your Colours

This is a tab for the rhythm guitar of the song

Intro:
e|---------------------------------------------------------------------------|
B|---------------------------------------------------------------------------|
G|--66666666666666666666666666666666-----------------------------------------|
D|--xxxxxxxxxxxxxxxxxxxxxxxxxxxxxxxx-----------------------------------------|
A|--44444444444444444444444444444444-----------------------------------------|
D|---------------------------------------------------------------------------|


"keep your hands to yourself..."
e|---------------------------------------------------------------------------|
B|---------------------------------------------------------------------------|
G|--66666666666666666666666666666666-----------------------------------------|
D|--xxxxxxxxxxxxxxxxxxxxxxxxxxxxxxxx-----------------------------------------|
A|--44444444444444444444444444444444-----------------------------------------|
D|---------------------------------------------------------------------------|


"you know that you will never..."
e|---------------------------------------------------------------------------|
B|---------------------------------------------------------------------------|
G|--66666666666666666666666666666666-----------------------------------------|
D|--xxxxxxxxxxxxxxxxxxxxxxxxxxxxxxxx-----------------------------------------|
A|--44444444444444444444444444444444-----------------------------------------|
D|---------------------------------------------------------------------------|


"keep your lies to yourself..."
e|---------------------------------------------------------------------------|
B|---------------------------------------------------------------------------|
G|--66666666666666666666666666666666-----------------------------------------|
D|--66666666666666666666666666666666-----------------------------------------|
A|--44444444444444444444444444444444-----------------------------------------|
D|---------------------------------------------------------------------------|


"you know that you will never..."
e|---------------------------------------------------------------------------|
B|---------------------------------------------------------------------------|
G|--66666666666666666666666666666666-----------------------------------------|
D|--44444444444444444444444444444444-----------------------------------------|
A|--44444444444444444444444444444444-----------------------------------------|
D|--44444444444444444444444444444444-----------------------------------------|


"well i sussed you good..."
e|---------------------------------------------------------------------------|
B|---------------------------------------------------------------------------|
G|--8888888810101010101010108888888888888888---------------------------------|
D|--666666666 6 6 6 6 6 6 6 6666666666666666---------------------------------|
A|--666666666 6 6 6 6 6 6 6 6666666666666666---------------------------------|
D|--666666666 6 6 6 6 6 6 6 6666666666666666---------------------------------|


"you knew i would"
e|---------------------------------------------------------------------------|
B|---------------------------------------------------------------------------|
G|--666666665555555588888888-13-13-1313-13-----------------------------------|
D|--444444444444444444444444-11-11-1111-11-----------------------------------|
A|--444444444444444444444444-11-11-1111-11-----------------------------------|
D|--444444444444444444444444-11-11-1111-11-----------------------------------|


"well haven't you heard..."
e|---------------------------------------------------------------------------|
B|---------------------------------------------------------------------------|
G|--66666666666666666666666666666666-----------------------------------------|
D|--66666666666666666666666666666666-----------------------------------------|
A|--44444444444444444444444444444444-----------------------------------------|
D|---------------------------------------------------------------------------|


"another night and another girl"
e|---------------------------------------------------------------------------|
B|---------------------------------------------------------------------------|
G|--66666666666666666666666666666666-----------------------------------------|
D|--44444444444444444444444444444444-----------------------------------------|
A|--44444444444444444444444444444444-----------------------------------------|
D|--44444444444444444444444444444444-----------------------------------------|


"well i taste so good"
e|---------------------------------------------------------------------------|
B|---------------------------------------------------------------------------|
G|--8888888810101010101010108888888888888888---------------------------------|
D|--666666666 6 6 6 6 6 6 6 6666666666666666---------------------------------|
A|--666666666 6 6 6 6 6 6 6 6666666666666666---------------------------------|
D|--666666666 6 6 6 6 6 6 6 6666666666666666---------------------------------|


"you knew i would"
e|---------------------------------------------------------------------------|
B|---------------------------------------------------------------------------|
G|--666666665555555588888888-13-13-1313-13-----------------------------------|
D|--444444444444444444444444-11-11-1111-11-----------------------------------|
A|--444444444444444444444444-11-11-1111-11-----------------------------------|
D|--444444444444444444444444-11-11-1111-11-----------------------------------|


"so who's keeping score..."
e|---------------------------------------------------------------------------|
B|---------------------------------------------------------------------------|
G|--66666666666666666666666666666666-----------------------------------------|
D|--66666666666666666666666666666666-----------------------------------------|
A|--44444444444444444444444444444444-----------------------------------------|
D|---------------------------------------------------------------------------|


"with you by my side..."
e|---------------------------------------------------------------------------|
B|---------------------------------------------------------------------------|
G|--66666666666666666666666666666666-----------------------------------------|
D|--44444444444444444444444444444444-----------------------------------------|
A|--44444444444444444444444444444444-----------------------------------------|
D|--44444444444444444444444444444444-----------------------------------------|


"i hope"
e|---------------------------------------------------------------------------|
B|---------------------------------------------------------------------------|
G|--1010101010101010131313131313131311111111111111111010101010101010---------|
D|--8 8 8 8 8 8 8 8 8 8 8 8 8 8 8 8 8 8 8 8 8 8 8 8 8 8 8 8 8 8 8 8 ---------|
A|--8 8 8 8 8 8 8 8 8 8 8 8 8 8 8 8 8 8 8 8 8 8 8 8 8 8 8 8 8 8 8 8 ---------|
D|--8 8 8 8 8 8 8 8 8 8 8 8 8 8 8 8 8 8 8 8 8 8 8 8 8 8 8 8 8 8 8 8 ---------|


"you know"
e|---------------------------------------------------------------------------|
B|---------------------------------------------------------------------------|
G|--66666666666666666666666666666666-----------------------------------------|
D|--44444444444444444444444444444444-----------------------------------------|
A|--44444444444444444444444444444444-----------------------------------------|
D|--44444444444444444444444444444444-----------------------------------------|


"go home and wash your jeans..."
Staccato
e|---------------------------------------------------------------------------|
B|---------------------------------------------------------------------------|
G|--6-6-6-6-6-6-6-6-6-6-6-6-6-6-6-6------------------------------------------|
D|--6-6-6-6-6-6-6-6-6-6-6-6-6-6-6-6------------------------------------------|
A|--4-4-4-4-4-4-4-4-3-3-3-3-3-3-3-3------------------------------------------|
D|---------------------------------------------------------------------------|


"yeah, jealousy doesnt sit with me"
e|---------------------------------------------------------------------------|
B|---------------------------------------------------------------------------|
G|--6-6-6-6-6-6-6-6-6-6-6-6-6-6-6-6------------------------------------------|
D|--4-4-4-4-4-4-4-4-4-4-4-4-4-4-4-4------------------------------------------|
A|--4-4-4-4-4-4-4-4-4-4-4-4-4-4-4-4------------------------------------------|
D|--4-4-4-4-4-4-4-4-4-4-4-4-4-4-4-4------------------------------------------|


"you love, i love you too..."
e|---------------------------------------------------------------------------|
B|---------------------------------------------------------------------------|
G|--6-6-6-6-6-6-6-6-6-6-6-6-6-6-6-6------------------------------------------|
D|--6-6-6-6-6-6-6-6-6-6-6-6-6-6-6-6------------------------------------------|
A|--4-4-4-4-4-4-4-4-3-3-3-3-3-3-3-3------------------------------------------|
D|---------------------------------------------------------------------------|


"'cause thats just how..."
e|---------------------------------------------------------------------------|
B|---------------------------------------------------------------------------|
G|--6-6-6-6-6-6-6-6-6-6-6-6-6-6-6-6------------------------------------------|
D|--4-4-4-4-4-4-4-4-4-4-4-4-4-4-4-4------------------------------------------|
A|--4-4-4-4-4-4-4-4-4-4-4-4-4-4-4-4------------------------------------------|
D|--4-4-4-4-4-4-4-4-4-4-4-4-4-4-4-4------------------------------------------|


"well my winning streak..."
e|---------------------------------------------------------------------------|
B|---------------------------------------------------------------------------|
G|--8888888810101010101010108888888888888888---------------------------------|
D|--666666666 6 6 6 6 6 6 6 6666666666666666---------------------------------|
A|--666666666 6 6 6 6 6 6 6 6666666666666666---------------------------------|
D|--666666666 6 6 6 6 6 6 6 6666666666666666---------------------------------|


"is missing you"
e|---------------------------------------------------------------------------|
B|---------------------------------------------------------------------------|
G|--666666665555555588888888-13-13-1313-13-----------------------------------|
D|--444444444444444444444444-11-11-1111-11-----------------------------------|
A|--444444444444444444444444-11-11-1111-11-----------------------------------|
D|--444444444444444444444444-11-11-1111-11-----------------------------------|


"so who's keeping score..."
e|---------------------------------------------------------------------------|
B|---------------------------------------------------------------------------|
G|--66666666666666666666666666666666-----------------------------------------|
D|--66666666666666666666666666666666-----------------------------------------|
A|--44444444444444444444444444444444-----------------------------------------|
D|---------------------------------------------------------------------------|


"with you by my side..."
e|---------------------------------------------------------------------------|
B|---------------------------------------------------------------------------|
G|--66666666666666666666666666666666-----------------------------------------|
D|--44444444444444444444444444444444-----------------------------------------|
A|--44444444444444444444444444444444-----------------------------------------|
D|--44444444444444444444444444444444-----------------------------------------|


"i hope"
e|---------------------------------------------------------------------------|
B|---------------------------------------------------------------------------|
G|--1010101010101010131313131313131311111111111111111010101010101010---------|
D|--8 8 8 8 8 8 8 8 8 8 8 8 8 8 8 8 8 8 8 8 8 8 8 8 8 8 8 8 8 8 8 8 ---------|
A|--8 8 8 8 8 8 8 8 8 8 8 8 8 8 8 8 8 8 8 8 8 8 8 8 8 8 8 8 8 8 8 8 ---------|
D|--8 8 8 8 8 8 8 8 8 8 8 8 8 8 8 8 8 8 8 8 8 8 8 8 8 8 8 8 8 8 8 8 ---------|


"you know"
e|---------------------------------------------------------------------------|
B|---------------------------------------------------------------------------|
G|--66666666666666666666666666666666-----------------------------------------|
D|--44444444444444444444444444444444-----------------------------------------|
A|--44444444444444444444444444444444-----------------------------------------|
D|--44444444444444444444444444444444-----------------------------------------|


"so who's keeping score..."
e|---------------------------------------------------------------------------|
B|---------------------------------------------------------------------------|
G|--66666666666666666666666666666666-----------------------------------------|
D|--66666666666666666666666666666666-----------------------------------------|
A|--44444444444444444444444444444444-----------------------------------------|
D|---------------------------------------------------------------------------|


"with you by my side..."
e|---------------------------------------------------------------------------|
B|---------------------------------------------------------------------------|
G|--66666666666666666666666666666666-----------------------------------------|
D|--44444444444444444444444444444444-----------------------------------------|
A|--44444444444444444444444444444444-----------------------------------------|
D|--44444444444444444444444444444444-----------------------------------------|


"i hope"
e|---------------------------------------------------------------------------|
B|---------------------------------------------------------------------------|
G|--1010101010101010131313131313131311111111111111111010101010101010---------|
D|--8 8 8 8 8 8 8 8 8 8 8 8 8 8 8 8 8 8 8 8 8 8 8 8 8 8 8 8 8 8 8 8 ---------|
A|--8 8 8 8 8 8 8 8 8 8 8 8 8 8 8 8 8 8 8 8 8 8 8 8 8 8 8 8 8 8 8 8 ---------|
D|--8 8 8 8 8 8 8 8 8 8 8 8 8 8 8 8 8 8 8 8 8 8 8 8 8 8 8 8 8 8 8 8 ---------|


"you know"
e|---------------------------------------------------------------------------|
B|---------------------------------------------------------------------------|
G|--66666666666666666666666666666666-----------------------------------------|
D|--44444444444444444444444444444444-----------------------------------------|
A|--44444444444444444444444444444444-----------------------------------------|
D|--44444444444444444444444444444444-----------------------------------------|


"and you whore"
e|---------------------------------------------------------------------------|
B|---------------------------------------------------------------------------|
G|--6~-------------6~-------------6~-------------6~--------------------------|
D|--6~-------------6~-------------4~-------------4~--------------------------|
A|--4~-------------4~-------------4~-------------4~--------------------------|
D|--------------------------------4~-------------4~--------------------------|


"too far, save it for the bedroom..."
e|---------------------------------------------------------------------------|
B|---------------------------------------------------------------------------|
G|--6~-------------6~-------------6~-------------6~--------------------------|
D|--6~-------------6~-------------4~-------------4~--------------------------|
A|--4~-------------4~-------------4~-------------4~--------------------------|
D|--------------------------------4~-------------4~--------------------------|


"too far, save it for the bedroom..."
e|---------------------------------------------------------------------------|
B|---------------------------------------------------------------------------|
G|--6~-------------6~-------------6~-------------6~--------------------------|
D|--6~-------------6~-------------4~-------------4~--------------------------|
A|--4~-------------4~-------------4~-------------4~--------------------------|
D|--------------------------------4~-------------4~--------------------------|


"too far, save it for the bedroom..."
Guitar Pauses - Listen for when to come back in
e|---------------------------------------------------------------------------|
B|---------------------------------------------------------------------------|
G|---------------------------------------------------------------------------|
D|---------------------------------------------------------------------------|
A|---------------------------------------------------------------------------|
D|---------------------------------------------------------------------------|


"too far, save it for the bedroom..."
e|---------------------------------------------------------------------------|
B|---------------------------------------------------------------------------|
G|--6666666666666666666666666666666666666666666666666666666666666666---------|
D|--6666666666666666666666666666666644444444444444444444444444444444---------|
A|--4444444444444444444444444444444444444444444444444444444444444444---------|
D|----------------------------------44444444444444444444444444444444---------|


"too far, save it for the bedroom..."
e|---------------------------------------------------------------------------|
B|---------------------------------------------------------------------------|
G|--6666666666666666666666666666666666666666666666666666666666666666---------|
D|--6666666666666666666666666666666644444444444444444444444444444444---------|
A|--4444444444444444444444444444444444444444444444444444444444444444---------|
D|----------------------------------44444444444444444444444444444444---------|


"we'll save it for the..."
Slow Strumming
e|---------------------------------------------------------------------------|
B|---------------------------------------------------------------------------|
G|--6666666666666666666666666666666666666666666666666666666666666666---------|
D|--6666666666666666666666666666666644444444444444444444444444444444---------|
A|--4444444444444444444444444444444444444444444444444444444444444444---------|
D|----------------------------------44444444444444444444444444444444---------|

"we'll save it for the..."
e|---------------------------------------------------------------------------|
B|---------------------------------------------------------------------------|
G|--6666666666666666666666666666666666666666666666666666666666666666---------|
D|--6666666666666666666666666666666644444444444444444444444444444444---------|
A|--4444444444444444444444444444444444444444444444444444444444444444---------|
D|----------------------------------44444444444444444444444444444444---------|


Strumming Speeds Up
e|---------------------------------------------------------------------------|
B|---------------------------------------------------------------------------|
G|--66666666666666666666666666666666-6-6-6-----------------------------------|
D|--66666666666666666666666666666666-6-6-6-----------------------------------|
A|--44444444444444444444444444444444-4-4-4-----------------------------------|
D|---------------------------------------------------------------------------|
Tap to rate this tab
# A B C D E F G H I J K L M N O P Q R S T U V W X Y Z