Song name
# A B C D E F G H I J K L M N O P Q R S T U V W X Y Z

You Me At Six - Poker Face tab

=============================================================
Poker Face by You Me At Six
=============================================================

Tabbed by: FergusJohnJ

Tuning: standard

Intro
Guitar 1&2
e|-------------------------------|
B|-------------------------------|
G|-------------------------------|
D|---4-4-4-6---4-4-4-6---4-4-4---|
A|---4-4-4-6---4-4-4-6---4-4-4---|
E|---2-2-2-4---2-2-2-4---2-2-2---|

Verse1
Guitar1
e|-------------------------------------|
B|-------------------------------------|
G|-------------------------------------|
D|---6-6-------------6-6-----4-4-------| x6
A|-----------6-6---------7-7-----------|
E|-------4-4-----4-4-------------2-2---|

Pre-Chorus “Luck and intuition...”
e|--------------|--------------|--------------|--------------|
B|--------------|--------------|--------------|--------------|
G|--------------|---8----------|--------------|---8----------|
D|---6----------|---8----------|---6----------|---8----------|
A|---6----------|---6----------|---6----------|---6----------|
E|---4----------|--------------|---4----------|--------------|
  (x16)             (x16)             (x16)            (x16)


e|----------------|----------------|
B|----------------|----------------|
G|----------------|---8------------|
D|---6------------|---8------------|
A|---6------------|---6------------|
E|---4------------|----------------|
   (x16)            (x9)

Chorus
e|--------------|--------------|--------------|-----------------|
B|--------------|--------------|--------------|-----------------|
G|--------------|---9----------|--------------|-----------------|
D|---6----------|---9----------|---9----------|---8-------------|
A|---6----------|---7----------|---9----------|---8-------------|
E|---4----------|--------------|---7----------|---6-------------|
   (x8)              (x8)             (x8)            (x8)

e|--------------|--------------|--------------|-----------------|
B|--------------|--------------|--------------|-----------------|
G|--------------|---9----------|--------------|-----------------|
D|---6----------|---9----------|---9----------|---8-------------|
A|---6----------|---7----------|---9----------|---8-------------|
E|---4----------|--------------|---7----------|---6-------------|
   (x8)              (x8)             (x8)             (x8)

Intro/Verse (x4)

Pre-Chorus

Chorus

Intro/Verse (x2)

Bridge (x6)
e|-------------------------|
B|-------------------------|
G|-------------------------|
D|-------------------------|
A|-----6\5-----6-5-6-5-----|
E|---4-----7-4---------2---|

Chorus (till the end)


| /  slide up
| \  slide down
| h  hammer-on
| p  pull-off
| ~  vibrato
| +  harmonic
| x  Mute note
=============================================================

Tap to rate this tab
# A B C D E F G H I J K L M N O P Q R S T U V W X Y Z