Song name
# A B C D E F G H I J K L M N O P Q R S T U V W X Y Z

You Me At Six - The Consequence tab

First tab ever.... Love this band!
Email me weee_scully@hotmail.com

Intro Riff 28seconds-38seconds
e||------------------------------|-----------------------------|
B||------------------------------|-----------------------------|
G||------------------------------|-----------------------------|
D||xx xx2-7755--777755-----------|2-7755--777755---------------|
A||xx xx2-7755--777755-----------|2-7755--777755------x2-------|
D||xx xx2-7755--777755-----------|2-7755--777755---------------|

38seconds-41seconds
e||------------------------------|
B||------------------------------|
G||------------------------------|
D||-5-----7----------------------|
A||-5-----7----------------------|
D||-5-x8--7-x8-------------------|

Verse 41seconds-1min7seconds
e||------------------------------|-----------------------------|
B||------------------------------|-----------------------------|
G||------------------------------|-----------------------------|
D||-2-77-55----5555--5-52--------|-2-77-55-----7777555---------|
A||-2-77-55----5555--5-52--------|-2-77-55-----7777555---------|
D||-2-77-55----5555--5-52--------|-2-77-55-----7777555---------|
      PM       PM                     PM
Chorus Build Up 1min8seconds-1min13seconds
e||------------------------------|
B||------------------------------|
G||------------------------------|
D||-5-----7-----5-----7----------|
A||-5-----7-----5-----7----------|
D||-5 x8--7 x8--5 x8--7 x8-------|
                PM
Chorus 1min14seconds-1min29seconds
e||------------------------------|
B||------------------------------|
G||------------------------------|
D||-2-----5-----0--------2~--777-|
A||-2-----5-----0-----x2-2~--777-| 
D||-2 x8--5 x8--0 x16----2~--777-|

Verse 1min29seconds-1min40seconds
e||------------------------------|-----------------------------|
B||------------------------------|-----------------------------|
G||------------------------------|-----------------------------|
D||-2-77-55----5555--5-52--------|-2-77-55-----7777555---------|
A||-2-77-55----5555--5-52--------|-2-77-55-----7777555---------|
D||-2-77-55----5555--5-52--------|-2-77-55-----7777555---------|
      PM       PM                     PM

1min41seconds-1min46seconds
e||------------------------------|
B||------------------------------|
G||-----------------7------------|
D||-2-2-7755--------7------------|
A||-2-2-7755--x2----5 x8---------| 
D||-2-2-7755---------------------|

Chorus x4 1min47seconds-2min11seconds
e||------------------------------|
B||------------------------------|
G||------------------------------|
D||-2-----5-----0----------------|
A||-2-----5-----0----------------| 
D||-2 x8--5 x8--0 x16------------|

NOT SURE 2mins11seconds-2mins35seconds

2mins36seconds-2mins38seconds
e||------------------------------|
B||------------------------------|
G||------------------------------|
D||-2~----5~----0----------------|
A||-2~----5~----0----------------| 
D||-2~----5~----0 x16------------|

Chorus x4 2mins39seconds-3mins6seconds
e||------------------------------|------------------------------|
B||------------------------------|------------------------------|
G||------------------------------|------------------------------|
D||-2-----5-----0----------------|-2~---------------------------|
A||-2-----5-----0---------x2-----|-2~---------------------------|
D||-2 x8--5 x8--0 x16------------|-2~---------------------------|

Outro 3mins-17seconds-3mins53seconds
e||------------------------------|
B||------------------------------|
G||------------------------------|
D||-2~------5~------0~-----------|
A||-2~------5~------0~-----x2----|
D||-2~------5~------0~-----------|

e||------------------------------|-----------------------------|
B||------------------------------|-----------------------------|
G||------------------------------|-----------------------------|
D||-2------5------0--------------|-----------------------------|
A||-2------5------0--------------|-----------------------------| Pause For 
D||-2 x16--5 x16--0 x32----------|-2 x16--5 x16--0 x16--0 x16--| Lead Riff
    PM     PM     PM               PM     PM     PM     NOT PM

Chorus Heavy 3mins56seconds-4mins20seconds
e||------------------------------|------------------------------|
B||------------------------------|------------------------------|
G||------------------------------|------------------------------|
D||-2-----5-----0----------------|-2~---------------------------|
A||-2-----5-----0--------x2------|-2~---------------------------|
D||-2 x8--5 x8--0 x16------------|-2~---------------------------|

Scully 
Tap to rate this tab
# A B C D E F G H I J K L M N O P Q R S T U V W X Y Z