Song name
# A B C D E F G H I J K L M N O P Q R S T U V W X Y Z

You Me At Six - The Consequence tab

-------------------------------------------------------------------------------
			     The Consequence - You Me At Six
-------------------------------------------------------------------------------
Tabbed by:ashraj9711
Email:ashraj0711@gmail.com

Hey, i think this is correct for the rythm Guitar. . . 
I am still working on the Lead.
Email Me / Comment if there are mistakes. 
Thanks :) 

Tuning:Drop - D (DADGBe)

Intro:
e|--------------------------------------------------------------------------|
B|--------------------------------------------------------------------------|
G|--------------------------------------------------------------------------|
D|-XX-XX-2-77p55--12-12-12-12-12-12-12-12--2-77p55--10-10-10-10-10-10-10-10-|
A|-XX-XX-2-77p55--12 12 12 12 12 12 12-12--2-77p55--10-10-10-10-10-10-10-10-|
D|-XX-XX-2-77p55--12-12-12-12-12-12-12-12--2-77p55--10-10-10-10-10-10-10-10-|

e|--------------------------------------------------------------------------|
B|--------------------------------------------------------------------------|
G|--------------------------------------------------------------------------|
D|-XX-XX-2-77p55--12-12-12-12-12-12-12-12--5555555577777755-----------------|
A|-XX-XX-2-77p55--12-12-12-12-12-12-12-12--5555555577777755-----------------|
D|-XX-XX-2-77p55--12-12-12-12-12-12-12-12--5555555577777755-----------------|

Verse 1:
e|---------------------------------------------------------------------------|
B|---------------------------------------------------------------------------|
G|---------------------------------------------------------------------------|
D|-2-777-5-12-12-12-12-12-12----2-777-5-10-10-10-10-10-10--------------------|(x4)
A|-2-777-5-12-12-12-12-12-12----2-777-5-10-10-10-10-10-10--------------------|
D|-2-777-5-12-12-12-12-12-12----2-777-5-10-10-10-10-10-10--------------------|
     ...   .  .  .  .  .  .       ...   .  .  .  .  .  . 

Pre Chorus:
e|---------------------------------------------------------------------------|
B|---------------------------------------------------------------------------|
G|---------------------------------------------------------------------------|
D|-2-777-5-12-12-12-12-12-12--55555555-77777777-55555555-77777777------------|
A|-2-777-5-12-12-12-12-12-12--55555555-77777777-55555555-77777777------------|
E|-2-777-5-12-12-12-12-12-12--55555555-77777777-55555555-77777777------------|
     ...   .  .  .  .  .  .                     ........

Chorus:
e|---------------------------------------------------------------------------|
B|---------------------------------------------------------------------------|
G|---------------------------------------------------------------------------|
D|-22222222-55555555-0000000000000000-------2~---777(7)----------------------|
A|-22222222-55555555-0000000000000000-(x2)--2~---777(7)----------------------|
E|-22222222-55555555-0000000000000000-------2~---777(7)----------------------|

Verse 2:
e|---------------------------------------------------------------------------|
B|---------------------------------------------------------------------------|
G|---------------------------------------------------------------------------|
D|-2-777-5-12-12-12-12-12-12----2-777-5-10-10-10-10-10-10--------------------|(x2)
A|-2-777-5-12-12-12-12-12-12----2-777-5-10-10-10-10-10-10--------------------|
D|-2-777-5-12-12-12-12-12-12----2-777-5-10-10-10-10-10-10--------------------|
     ...   .  .  .  .  .  .       ...   .  .  .  .  .  . 

e|---------------------------------------------------------------------------|
B|---------------------------------------------------------------------------|
G|---------------------------------------------------------------------------|
D|-2-77-5-----------------------2-77-55-10-10-10-10-10-10--------------------|
A|-2-77-5-----------------------2-77-55-10-10-10-10-10-10--------------------|
E|-2-77-5-----------------------2-77-55-10-10-10-10-10-10--------------------|
     ..                           ..    .  .  .  .  .  . 


Chorus:
e|---------------------------------------------------------------------------|
B|---------------------------------------------------------------------------|
G|---------------------------------------------------------------------------|
D|-22222222-55555555-0000000000000000-------2~---777(7)----------------------|
A|-22222222-55555555-0000000000000000-(x2)--2~---777(7)----------------------|
E|-22222222-55555555-0000000000000000-------2~---777(7)----------------------|

Bridge:
e|---------------------------------------------------------------------------|
B|---------------------------------------------------------------------------|
G|---------------------------------------------------------------------------|
D|-2~~~~~~~-5~~~~~~~-0~~~~~~~~~~~~~~~----------------------------------------|
A|-2~~~~~~~-5~~~~~~~-0~~~~~~~~~~~~~~~-(x2)-----------------------------------|
E|-2~~~~~~~-5~~~~~~~-0~~~~~~~~~~~~~~~----------------------------------------|

(NO Rythm Guitar till 2.35.)

e|---------------------------------------------------------------------------|
B|---------------------------------------------------------------------------|
G|---------------------------------------------------------------------------|
D|-2~~~~~~~-5~~~~~~~-0~~~~~~~~~~~~~~~----------------------------------------|
A|-2~~~~~~~-5~~~~~~~-0~~~~~~~~~~~~~~~----------------------------------------|
E|-2~~~~~~~-5~~~~~~~-0~~~~~~~~~~~~~~~----------------------------------------|

Chorus:
e|---------------------------------------------------------------------------|
B|---------------------------------------------------------------------------|
G|---------------------------------------------------------------------------|
D|-22222222-55555555-0000000000000000-------2~-------------------------------|
A|-22222222-55555555-0000000000000000-(x2)--2~-------------------------------|
E|-22222222-55555555-0000000000000000-------2~-------------------------------|

Outro:
e|---------------------------------------------------------------------------|
B|---------------------------------------------------------------------------|
G|---------------------------------------------------------------------------|
D|-2~~~~~~~-5~~~~~~~-0~~~~~~~~~~~~~~~----------------------------------------|
A|-2~~~~~~~-5~~~~~~~-0~~~~~~~~~~~~~~~----------------------------------------|
E|-2~~~~~~~-5~~~~~~~-0~~~~~~~~~~~~~~~----------------------------------------|

e|---------------------------------------------------------------------------|
B|---------------------------------------------------------------------------|
G|---------------------------------------------------------------------------|
D|---------------------------------------------------------------------------|
A|---------------------------------------------------------------------------|
E|-2222222222222222-5555555555555555-00000000000000000000000000000000--------|
   ................ ................ ................................

e|---------------------------------------------------------------------------|
B|---------------------------------------------------------------------------|
G|---------------------------------------------------------------------------|
D|--------------------------------------------------------------------000000-|
A|--------------------------------------------------------------------000000-|
E|-2222222222222222-5555555555555555-00000000000000000000000000000000-000000-|
   ................ ................ ................................

e|---------------------------------------------------------------------------|
B|---------------------------------------------------------------------------|
G|---------------------------------------------------------------------------|
D|-22222222-55555555-0000000000000000-------2~-------------------------------|
A|-22222222-55555555-0000000000000000-(x2)--2~-------------------------------|
E|-22222222-55555555-0000000000000000-------2~-------------------------------|




| /  slide up
| \  slide down
| h  hammer-on
| p  pull-off
| ~  Hold
| +  harmonic
| x  Mute note
| .  Palm Mute
===============================================================================
Tap to rate this tab
 
# A B C D E F G H I J K L M N O P Q R S T U V W X Y Z