Song name
# A B C D E F G H I J K L M N O P Q R S T U V W X Y Z

You Me At Six - Underdog tab

This is my first you me at six tab.and it's of there new song "underdog" 
the way i play the song sounds pretty accurate! pls rate and if you have
and suggestions of the song email me at fear_factory_rule@hotmail.com 


Tabbed by:LALLY
Email: fear_factory_rule@hotmail.com

Tuning: Drop D 

Intro 
e|---------------------------| X6
B|---------------------------|
G|-6666----------------------|
D|-6666--8888----6666---666--|
A|-4444--8888----6666---666--|
D|-------8888----6666---666--|

e|---------------------|
B|---------------------|
G|---------------------|
D|--88888888-~---------|
A|--88888888-~---------|
D|--88888888-~---------|

Chorus
e|-----------------------------X2--------|
B|---------------------------------------|
G|----------------6666-------------------|
D|--8888---4444---6666---6666------8~----|
A|--8888---4444---4444---6666------8~----|
D|--8888---4444----------6666------8~----|

Verse
e|-----------------------------| X4
B|-----------------------------|
G|-6666------------------------|
D|-6666---8888---6666---666----|
A|-4444---8888---6666---666----|
D|--------8888---6666---666----|

e|-----------------------------------------|
B|-----------------------------------------|
G|-----------------------------------------|
D|-8~---6-8-6-8-6-8/--4444---6666--666-----|
A|-8~---6-8-6-8-6-8/--4444---6666--666-----|
D|-8~---6-8-6-8-6-8/--4444---6666--666-----|

Chorus
e|-------------------------------| X4 
B|-------------------------------|
G|----------------6666-----------|
D|--8888---4444---6666---6666----|
A|--8888---4444---4444---6666----|
D|--8888---4444----------6666----|

e|---------------------|
B|---------------------|
G|---------------------|
D|--88888888-~---------|
A|--88888888-~---------|
D|--88888888-~---------|




e|----------------------------| X2
B|----------------------------|
G|--------6666----------------|
D|-4444---6666---66666666-----|
A|-4444---4444---66666666-----|
D|-4444----------66666666-----|

Slight pause 
e|----------------------------|
B|----------------------------|
G|-----6666-------------------|
D|-4---6666---66666666--------|
A|-4---4444---66666666--------|
D|-4----------66666666--------|

e|----------------------------| 
B|----------------------------|
G|--------6666----------------|
D|-4444---6666---66666666-----|
A|-4444---4444---66666666-----|
D|-4444----------66666666-----|


e|----------------------------|
B|----------------------------|
G|-6666-----------------------|
D|-6666--4444-----------------|
A|-4444--4444-----------------|
D|-------4444-----------------|

Chorus 3 
e|--------------------------------------|
B|--------------------------------------|
G|---------------------6666-------------|
D|-8~---8~---4~---4~---6666---6666------|
A|-8~---8~---4~---4~---4444---6666------|
D|-8~---8~---4~---4~----------6666------|

e|----------------------------X3-------|
B|-------------------------------------|
G|---------------6666---6666-----------|
D|-8888---4444---6666---6666------8~---|
A|-8888---4444---4444---6666------8~---|
D|-8888---4444----------6666------8~---|





Tap to rate this tab
# A B C D E F G H I J K L M N O P Q R S T U V W X Y Z