Song name
# A B C D E F G H I J K L M N O P Q R S T U V W X Y Z

You Me At Six - Stay With Me tab

DROP D

INTRO: D,C,A#

Guitar 1:
e|--------------------------------------------------|
B|--------------------------------------------------|
G|----7-7-7----5-5-5------3-3-3---------------------|
D|----7-7-7----5-5-5 -----3-3-3---------------------|
A|----5-5-5----3-3-3------1-1-1---------------------|
E|--------------------------------------------------|  X2

Guitar 2
e|--------------------------------------------------|
B|--------------------------------------------------|
G|14--12--10----------------------------------------|
D|--------------------------------------------------|
A|--------------------------------------------------|
E|--------------------------------------------------| X8


Guitar 1:OPEN D! LET RING...

e|--------------------------------------------------|
B|--------------------------------------------------|
G|--------------------------------------------------|
D|--0-----------------------------------------------|
A|--0-----------------------------------------------|
E|--0-----------------------------------------------|




VERSE chords: Dm, C, A# - ARPEGGIATED


e|------------------------------------5--------------------------|
B|------6---------------5----------------------------------------|
G|-------------------------5-------------------------------------|
D|----7----7---------5-------------3-----------------------------|
A|-5--------------3------------1---------------------------------|
E|---------------------------------------------------------------| X7


ANOTHER OPEN D! LET RING...


CHORUS 1:


Guitar 1:
e|--------------------------------------------------|
B|--------------------------------------------------|
G|----7-7-7----5-5-5------3-3-3---------------------|
D|----7-7-7----5-5-5 -----3-3-3---------------------|
A|----5-5-5----3-3-3------1-1-1---------------------|
E|--------------------------------------------------|  X2


Guitar 2
e|--------------------------------------------------|
B|--------------------------------------------------|
G|14--12--10----------------------------------------|
D|--------------------------------------------------|
A|--------------------------------------------------|
E|--------------------------------------------------| X8


VERSE 2 + woah bit

e|------------------------------------5--------------------------|
B|------6---------------5----------------------------------------|
G|-------------------------5-------------------------------------|
D|----7----7---------5-------------3-----------------------------|
A|-5--------------3------------1---------------------------------|
E|---------------------------------------------------------------| X4

D PALM MUTED!

CHORUS


e|--------------------------------------------------|
B|--------------------------------------------------|
G|----7-7-7----5-5-5------3-3-3---------------------|
D|----7-7-7----5-5-5 -----3-3-3---------------------|
A|----5-5-5----3-3-3------1-1-1---------------------|
E|--------------------------------------------------|  X4

Guitar 2
e|--------------------------------------------------|
B|--------------------------------------------------|
G|14--12--10----------------------------------------|
D|--------------------------------------------------|
A|--------------------------------------------------|
E|--------------------------------------------------| X16

BRIDGE


e|--------------------------------------------------|
B|--------------------------------------------------|
G|--------------------------------------------------|
D|----3------5---------0----------------------------|
A|----3--X8--5--X8-----0--X16-----------------------|
E|----3------5---------0----------------------------| X4

Guitar 1: OPEN D

Guitar 2:

e|---------------------------------------------------------------|
B|------6---------------6-------------6--------------------------|
G|-------------------------7--------------(--7-----)-------------|
D|----7----7---------7-------------7------(-----X5-)-------------|
A|-5--------------5------------5----------(--5-----)-------------|
E|---------------------------------------------------------------| X1


CHORUS:


e|--------------------------------------------------|
B|--------------------------------------------------|
G|----7-7-7----5-5-5------3-3-3---------------------|
D|----7-7-7----5-5-5 -----3-3-3---------------------|
A|----5-5-5----3-3-3------1-1-1---------------------|
E|--------------------------------------------------|  X4

Guitar 2
e|--------------------------------------------------|
B|--------------------------------------------------|
G|14--12--10----------------------------------------|
D|--------------------------------------------------|
A|--------------------------------------------------|
E|--------------------------------------------------| X16

BOTH GUITARS: OPEN D




THE END

LYRICS HERE: http://www.lyricsmania.com/stay_with_me_lyrics_you_me_at_six.html

Tap to rate this tab
 
# A B C D E F G H I J K L M N O P Q R S T U V W X Y Z