Song name
# A B C D E F G H I J K L M N O P Q R S T U V W X Y Z

You Me At Six - Safer To Hate Her tab

               Safer To Hate Her (intro) - You Me At Six

e|--------------------------------------------------------------|
B|-----------------------------------------------------8--7-----|
G|-----------------------------------------------------------7--|
D|--2--2--5--4-----0--0--4--5--7--0--0--7--5--4--5--5-----------|
A|--2--2--------5--0--0-----------0--0-----------5--5-----------|
D|--2--2-----------0--0-----------0--0-----------5--5-----------|

e|----------------------------------------------------------|
B|-----------7--8---------8--7------------------------------|
G|--------7---------------------7------------------7-7-7-7--|
D|--0--0------------0--0------------2--2--5--4-----7-7-7-7--|
A|--0--0------------0--0------------2--2-----------5-5-5-5--|
D|--0--0------------0--0------------2--2--------------------|

e|-------------------------------------------------------|
B|-------------------------------------------------------|
G|--1414141414141414-12121212-11111111-9999-9-9999/1111--|
D|--x-x-x-x-x-x-x-x--x-x-x-x--x-x-x-x--xxxx-x-xxxx-xxxx--|
A|--1212121212121212-10101010-9-9-9-9--7777-7-7777/9999--|
D|-------------------------------------------------------|

e|----------------------------------------------------------|
B|----------------------------------------------------------|
G|--1414141414141414-12121212-11111111-9999-9-9999-1111-77--|
D|--x-x-x-x-x-x-x-x--x-x-x-x---x-x-x-x-xxxx-x-xxxx-x-x--xx--|
A|--1212121212121212-10101010--9-9-9-9-7777-7-7777-9-9--55--|
D|----------------------------------------------------------|
Tap to rate this tab
# A B C D E F G H I J K L M N O P Q R S T U V W X Y Z