Song name
# A B C D E F G H I J K L M N O P Q R S T U V W X Y Z

You Me At Six - Contagious Chemistry tab

(/) Slide Up  (\) Slide Down  (h) Hammer On  (p) Pull Off  (b) Bend (r) Release
(v) Vibrato (x) palm mute)

This is my first ever tab so its not going to be completely accurate but it sounds alright to me!

Verse 1 part 1 (if i can have a minute...)
listen for strumming pattern

E|--------------|
B|--------------|
G|--9--6--4--4--|
D|--9--6--4--4--| x4
A|--7--4--2--2--|
E|--------------|

E|-----
B|-----
G|--6--
D|--6-- let it ring
A|--4--
E|-----

Verse 1 part 2 but the only part for all other verses

E|-------------------           ----------    ----------|
B|------x4----x4--x4-           ---x4--x4-    ----------|
G|-------------------           6----8---- x2 6----4----|
D|----9----6----4---- fast now  6----8----    6----4----|let these ring
A|----9----6----4----           4----6----    4----2----|
E|----7----4----2----           ----------    ----------|

Chorus (this love...)
listen for strumming pattern

E|-------------------------|
B|------x4----x4--x4-------|x4
G|----6----9----4----4-----|
D|----6----9----4----4-----|
A|----4----7----2----2-----|
E|-------------------------|

Play verse again then chorus

Bridge (this is the first...) listen for strumming patterns
E|--------------------------|
B|------x4----x4--x4--------|x4
G|----9----6----4----4------| x2
D|----9----6----4----4------|
A|----7----4----2----2------|
E|--------------------------|

E|------------------------|
B|------------------------|
G|----88xx-66xx-44xx-4444-|
D|----88xx-66xx-44xx-4444-| x2 then carry on the 2 x8 then 4 x8
A|----66xx-44xx-22xx-2222-|			4	  6
E|------------------------|			4	  6

slow part before end

E|-----------------------------|
B|-----------------------------|
G|--------8--------6--------4--| x4
D|-----8--------6--------4-----|
A|--6--------4--------2--------|
E|-----------------------------|


The end

------x4----x4-----|
-------------------|
----9----6----4-6--|
----9----6----4-6--|
----7----4----2-4--|
-------------------|

Email - Becky1992@hotmail.co.uk
Tap to rate this tab
# A B C D E F G H I J K L M N O P Q R S T U V W X Y Z