Song name
# A B C D E F G H I J K L M N O P Q R S T U V W X Y Z

You Me At Six - Underdog tab

-----------------------------------------------------------------------------
			     Underdog - You Me At Six
-----------------------------------------------------------------------------
Tabbed by: cannibal_freak1
Email: ditto_ditto_3@hotmail.com

Tuning: Standard

Such a fucking cracking tune.
Enjoy!

Intro/verse

Guitar 1
e|---------------------------------|
B|---------------------------------|
G|---------------------------------|
D|---3-3-3-------------------------|
A|---4-4-4--4-4-4--3-3-3-3-3-3-3---|
E|----------6-6-6--4-4-4-4-4-4-4---|

Pre-chorus
Guitar 1
e|----------------------------------------|
B|----------------------------------------|
G|----------------------------------------|
D|------------------------------------8---|
A|---8-8-8-8-8-8-8-8-8-8-8-8-8-8-8-8--8---|
E|---6-6-6-6-6-6-6-6-6-6-6-6-6-6-6-6--6---|
     . . . . . . . . . . . . . . . .  

Guitar 2
e|----------------------------------------|
B|----------------------------------------|
G|------------------------------------6---|
D|---8-8-8-8-8-8-8-8-8-8-8-8-8-8-8-8--8---|
A|----------------------------------------|
E|----------------------------------------|
     . . . . . . . . . . . . . . . .  


Chorus
Guitar 1
e|---------------------------------------------------------------------|
B|---------------------------------------------------------------------|
G|-----------------------------------6-6-6-6-6-6-6-6-------------------|
D|---8-8-8-8-8-8-8-8-4-4-4-4-4-4-4-4-6-6-6-6-6-6-6-6-6-6-6-6-6-6-6-6---|
A|---8-8-8-8-8-8-8-8-4-4-4-4-4-4-4-4-4-4-4-4-4-4-4-4-6-6-6-6-6-6-6-6---|
E|---6-6-6-6-6-6-6-6-2-2-2-2-2-2-2-2-----------------4-4-4-4-4-4-4-4---|

Guitar 2
e|-------------------------------------------------------------|
B|-------------------------------------------------------------|
G|-------6-6-8-6-8-6~----6---8-6---6------6-6-8-6-8-6--5brbr---|
D|---8-8---------------8---8-----8----8-8----------------------|
A|-------------------------------------------------------------|
E|-------------------------------------------------------------|



Pre-verse
Guitar 1
e|-----------------|
B|-----------------|
G|-----------------|
D|---8-----8-6-8---|
A|---8-----8-6-8---|
E|---6-----6-4-6---|

Guitar 2
e|-----------------|
B|-----------------|
G|-----------------|
D|---8-----8-6-8---|
A|-----------------|
E|-----------------|



Verse



Pre-chorus
Guitar 1
e|-----------------------------------|
B|-----------------------------------|
G|-----------------------------------|
D|---8---6-6-6-8---------------------|
A|---8---6-6-6-8---------------------|
E|---6---4-4-4-6---2-2-2-2-4-4-4-4---|

Guitar 2
e|-------------------------------------|
B|-------------------------------------|
G|-------------------------------------|
D|---6h8---6-6-6-8---4-4-4-4-6-6-6-6---|
A|-------------------------------------|
E|-------------------------------------|



Chorus



Bridge
Guitar 1
e|-----------------------|
B|-----------------------|
G|-----------------------|
D|---3-3-3-3-3-3-3-3-3---|
A|---3-3-3-3-3-3-3-3-3---|
E|---1-1-1-1-1-1-1-1-1---|
     . . . . . . . . . 

Guitar 2
e|-----------------------|
B|-----------------------|
G|---5-5-5-5-5-5-5-5-5---|
D|-----------------------|
A|---3-3-3-3-3-3-3-3-3---|
E|-----------------------|

Guitar 1
e|-------------------------------------|
B|-------------------------------------|
G|-----------6-6-6-6-------------------|
D|---4-4-4-4-6-6-6-6-6-6-6-6-6-6-6-6---|
A|---4-4-4-4-4-4-4-4-6-6-6-6-6-6-6-6---|
E|---2-2-2-2---------4-4-4-4-4-4-4-4---|

Guitar 2
e|---------4---------4---------4---------4-----|
B|-------4---4-----4---4-----4---4-----4---4---|
G|---5h6-------5h6-------5h6-------5h6---------|
D|---------------------------------------------|
A|---------------------------------------------|
E|---------------------------------------------|

Guitar 1
e|-----------------------|
B|-----------------------|
G|-----------------------|
D|---3-3-3-3-3-3-3-3-3---|
A|---3-3-3-3-3-3-3-3-3---|
E|---1-1-1-1-1-1-1-1-1---|
     . . . . . . . . . 

Guitar 2
e|-----------------------|
B|-----------------------|
G|---5-5-5-5-5-5-5-5-5---|
D|-----------------------|
A|---3-3-3-3-3-3-3-3-3---|
E|-----------------------|


Chorus
Guitar 1
e|---------------------------------------------------------------------|
B|---------------------------------------------------------------------|
G|-----------------------------------6-6-6-6-6-6-6-6-------------------|
D|---8---------------4---------------6-6-6-6-6-6-6-6-6-6-6-6-6-6-6-6---|
A|---8---------------4---------------4-4-4-4-4-4-4-4-6-6-6-6-6-6-6-6---|
E|---6---------------2-------------------------------4-4-4-4-4-4-4-4---|

Guitar 2
e|-----------------------------------------------------------|
B|-----------------------------------------------------------|
G|---------------------------------------6-6-8-6-8-6-5brbr---|
D|---8---------------10--------------8-8---------------------|
A|-----------------------------------------------------------|
E|-----------------------------------------------------------|


************************************

| /   slide up
| \   slide down
| h   hammer-on
| p   pull-off
| ~   vibrato
| +   harmonic
| x   Mute note
| b   Bend
| pb  Pre-bend
| br  Bend release
| pbr Pre-bend release
| brb Bend release bend

************************************
Tap to rate this tab
 
# A B C D E F G H I J K L M N O P Q R S T U V W X Y Z