Song name
# A B C D E F G H I J K L M N O P Q R S T U V W X Y Z

You Me At Six - Stay With Me tab

This is my first tab ever so I kept the song choice simple...

Drop D Tuning.

Intro:
Guitar 1:

e|--------------------------------------------------|
B|----6-6-6----5-5-5------3-3-3----3-3-3------------|
G|----7-7-7----5-5-5------3-3-3----3-3-3------------|
D|----7-7-7----5-5-5 -----3-3-3----3-3-3------------|   x2
A|----5-5-5----3-3-3------1-1-1----1-1-1------------|
D|--------------------------------------------------|

Guitar 2:

e|--------------------------------------------------|
B|-66-10-8-6666-10-8-6666-10-8-6666-10-8-6----------|   
G|--------------------------------------------------|   x2
D|--------------------------------------------------|
A|--------------------------------------------------|
D|--------------------------------------------------|

Guitar 1:

e|--------------------------------------------------|
B|--------------------------------------------------|
G|--------------------------------------------------|
D|-0~~~~~-------------------------------------------|
A|-0~~~~~-------------------------------------------|
D|-0~~~~~-------------------------------------------|


Verse:

e|-----------------------------------5~~----------------------|
B|------6--------------5--------------------------------------|
G|------------------------5-----------------------------------|
D|----7----7---------5------------3---------------------------| x6
A|-5--------------3------------1------------------------------|
D|------------------------------------------------------------|


Then...


e|--------------------------------------------------|
B|--------------------------------------------------|
G|--------------------------------------------------|
D|-0~~~~~-------------------------------------------|
A|-0~~~~~-------------------------------------------|
D|-0~~~~~-------------------------------------------|


Chorus:

Guitar 1:

e|--------------------------------------------------|
B|----6-6-6----5-5-5------3-3-3----3-3-3------------|
G|----7-7-7----5-5-5------3-3-3----3-3-3------------|
D|----7-7-7----5-5-5 -----3-3-3----3-3-3------------|   x2
A|----5-5-5----3-3-3------1-1-1----1-1-1------------|
D|--------------------------------------------------|



Guitar 2:

e|--------------------------------------------------|
B|-66-10-8-6666-10-8-6666-10-8-6666-10-8-6----------|   
G|--------------------------------------------------|   x2
D|--------------------------------------------------|
A|--------------------------------------------------|
D|--------------------------------------------------|


Verse 2:

Guitar 1:
e|-----------------------------------5~~----------------------|
B|------6--------------5--------------------------------------|
G|------------------------5-----------------------------------|
D|----7----7---------5------------3---------------------------| x4
A|-5--------------3------------1------------------------------|
D|------------------------------------------------------------|

Guitar 2:
Same as guitar 1 but every other time so... the first and third times.

Then...

e|--------------------------------------------------|
B|--------------------------------------------------|
G|--------------------------------------------------|
D|-0~0000000000000----------------------------------|
A|-0~0000000000000----------------------------------|
D|-0~0000000000000----------------------------------|
     *************

Chorus:

Guitar 1:

e|--------------------------------------------------|
B|----6-6-6----5-5-5------3-3-3----3-3-3------------|
G|----7-7-7----5-5-5------3-3-3----3-3-3------------|
D|----7-7-7----5-5-5 -----3-3-3----3-3-3------------|   x4
A|----5-5-5----3-3-3------1-1-1----1-1-1------------|
D|--------------------------------------------------|



Guitar 2:

e|--------------------------------------------------|
B|-66-10-8-6666-10-8-6666-10-8-6666-10-8-6----------|   
G|--------------------------------------------------|   x4
D|--------------------------------------------------|
A|--------------------------------------------------|
D|--------------------------------------------------|


Bridge: 

e|-----------------------------------------------------|
B|-----------------------------------------------------|
G|-----------------------------------------------------|   x4
D|--33333333-55555555--0000000000000000----------------|
A|--33333333-55555555--0000000000000000----------------|
D|--33333333-55555555--0000000000000000----------------|

Guitar 1: 

e|--------------------------------------------------|
B|--------------------------------------------------|
G|--------------------------------------------------|
D|-0~~~~~-------------------------------------------|
A|-0~~~~~-------------------------------------------|
D|-0~~~~~-------------------------------------------|

Guitar 2:

e|---------------------------------------------------------------|
B|------6---------------6-------------6--------------------------|
G|-------------------------7--------------(--7-----)-------------|
D|----7----7---------7-------------7------(-----X5-)-------------|
A|-5--------------5------------5----------(--5-----)-------------|
D|---------------------------------------------------------------| Once

Chorus:

Guitar 1:

e|--------------------------------------------------|
B|----6-6-6----5-5-5------3-3-3----3-3-3------------|
G|----7-7-7----5-5-5------3-3-3----3-3-3------------|
D|----7-7-7----5-5-5 -----3-3-3----3-3-3------------|   x4
A|----5-5-5----3-3-3------1-1-1----1-1-1------------|
D|--------------------------------------------------|



Guitar 2:

e|--------------------------------------------------|
B|-66-10-8-6666-10-8-6666-10-8-6666-10-8-6----------|   
G|--------------------------------------------------|   x4
D|--------------------------------------------------|
A|--------------------------------------------------|
D|--------------------------------------------------|


End on Both guitars:

e|--------------------------------------------------|
B|--------------------------------------------------|
G|--------------------------------------------------|
D|-0~~~~~-------------------------------------------|
A|-0~~~~~-------------------------------------------|
D|-0~~~~~-------------------------------------------|
Tap to rate this tab
# A B C D E F G H I J K L M N O P Q R S T U V W X Y Z