Song name
# A B C D E F G H I J K L M N O P Q R S T U V W X Y Z

You Me At Six - Stay With Me tab

hi(: this is my first tab and i noticed that when i played it, after getting it off here 
someone else, everything was half a note higher than it should be, so i thought i'd 
change it ;D

DROP D

INTRO: C#m , B , A

Guitar 1:
e|--------------------------------------------------|
B|--------------------------------------------------|
G|----6-6-6----4-4-4------2-2-2---------------------|
D|----6-6-6----4-4-4------2-2-2---------------------|
A|----4-4-4----2-2-2------0-0-0---------------------|
E|--------------------------------------------------|  X2
you can play the A chord as an open chord or a barre chord, whichever you find easier (:

(11's not 1's)
Guitar 2
e|--------------------------------------------------|
B|----9---------------------------------------------|
G|9------11---9-------------------------------------|
D|--------------------------------------------------|
A|--------------------------------------------------|
E|--------------------------------------------------| X8

Guitar 1:OPEN D! LET RING...

e|--------------------------------------------------|
B|--------------------------------------------------|
G|--------------------------------------------------|
D|--0-----------------------------------------------|
A|--0-----------------------------------------------|
E|--0-----------------------------------------------|

VERSE chords: Dm, C, A# - ARPEGGIATED

e|------------------------------------4--------------------------|
B|------5---------------4----------------------------------------|
G|-------------------------4-------------------------------------|
D|----6----6---------4-------------2-----------------------------|
A|-4--------------2------------0---------------------------------|
E|---------------------------------------------------------------| X7

ANOTHER OPEN C#m! LET RING...

CHORUS 1:

Guitar 1:
e|--------------------------------------------------|
B|--------------------------------------------------|
G|----6-6-6----4-4-4------2-2-2---------------------|
D|----6-6-6----4-4-4------2-2-2---------------------|
A|----4-4-4----2-2-2------0-0-0---------------------|
E|--------------------------------------------------|  X2


(11's not 1's)
Guitar 2
e|--------------------------------------------------|
B|----9---------------------------------------------|
G|9------11---9-------------------------------------|
D|--------------------------------------------------|
A|--------------------------------------------------|
E|--------------------------------------------------| X8

VERSE 2 + woah bit

e|------------------------------------4--------------------------|
B|------5---------------4----------------------------------------|
G|-------------------------4-------------------------------------|
D|----6----6---------4-------------2-----------------------------|
A|-4--------------2------------0---------------------------------|
E|---------------------------------------------------------------| X4

C#m PALM MUTED!

CHORUS

e|--------------------------------------------------|
B|--------------------------------------------------|
G|----6-6-6----4-4-4------2-2-2---------------------|
D|----6-6-6----4-4-4------2-2-2---------------------|
A|----4-4-4----2-2-2------0-0-0---------------------|
E|--------------------------------------------------| X4

(11's not 1's)
Guitar 2
e|--------------------------------------------------|
B|----9---------------------------------------------|
G|9------11---9-------------------------------------|
D|--------------------------------------------------|
A|--------------------------------------------------|
E|--------------------------------------------------| X16

BRIDGE

e|--------------------------------------------------|
B|--------------------------------------------------|
G|--------------------------------------------------|
D|----3------5---------1----------------------------|
A|----3--X8--5--X8-----1--X16-----------------------|
E|----3------5---------1----------------------------| X4

Guitar 1: OPEN C#m

Guitar 2:

e|---------------------------------------------------------------|
B|------5---------------5-------------5--------------------------|
G|-------------------------7--------------(--6-----)-------------|
D|----6----6---------6-------------6------(-----X5-)-------------|
A|-4--------------4------------4----------(--4-----)-------------|
E|---------------------------------------------------------------| X1

CHORUS:

e|--------------------------------------------------|
B|--------------------------------------------------|
G|----6-6-6----4-4-4------2-2-2---------------------|
D|----6-6-6----4-4-4------2-2-2---------------------|
A|----4-4-4----2-2-2------0-0-0---------------------|
E|--------------------------------------------------| X4

(11's not 1's)
Guitar 2
e|--------------------------------------------------|
B|----9---------------------------------------------|
G|9------11---9-------------------------------------|
D|--------------------------------------------------|
A|--------------------------------------------------|
E|--------------------------------------------------| X16

BOTH GUITARS: OPEN C#m
Tap to rate this tab
# A B C D E F G H I J K L M N O P Q R S T U V W X Y Z